PrimaNota.ru - самый крупный в мире бесплатный архив песенных текстов, аккордов, табулатур и нот


Terasbetoni - Tuonelaan - текст песни, таба, видео

Регистрация Запомнить меня
Войти через:  Facebook Google Twitter Vk Yandex Mail.ru

Terasbetoni - Tuonelaan - текст песни, таба, видео

Печатать
Просмотров: 121
Teräsbetoni - Tounelaan

Tabbed by: Lazzle22

Email: Lasse2411@hotmail.com
-------------------------------

h   - hammer-on
p   - pull-off
^   - bend
~   - vibrato
/\  - slide
X\\ - pick scrape
<3> - harmonic
X   - mute
•   - palm mute

Tuning is: Standard (EADGBe)

INTRO (00:00)

e|----------------------------|
B|----------------------------|
G|-12--12----12--12--9--7--9--|
D|-12--12----12--12--9--7--9--|x2
A|-10---9----10---9--7--5--7--|
E|----------------------------|

e|-------------------------------------------------------------|
B|-------------------------------------------------------------|
G|-12--12----12--12--9--7------12--12--9--7-----11--9----------|
D|-12--12----12--12--9--7--9---12--12--9--7--9--11--9----------|
A|-10---9----10---9--7--5--9---10---9--7--5--9---9--7---2--2---|
E|-------------------------7-----------------7----------0--0---|
                                                        •  •
VERSE (00:32)

e|------------------------------------|
B|------------------------------------|
G|------------------------------------|
D|------------------------------------|
A|-0-0-0-0-5-5-5-5--------------------|
E|-----------------3-3-3-3-0-0-0-0----|
   • • • • • • • • • • • • • • • •


e|------------------------------------------|
B|------------------------------------------|
G|------------------7-7-7-7-----------------|
D|-2-2-2-2-2-2-2-2--5-5-5-5-----------5--9--|
A|-0-0-0-0-0-0-0-0-----------5-5-5-5--5--9--|
E|---------------------------3-3-3-3--3--7--|
   • • • • • • • •  • • • •  • • • •

CHORUS (00:54)

e|----------------------------|
B|----------------------------|
G|-12--12----12--12--9--7--9--|
D|-12--12----12--12--9--7--9--|x2
A|-10---9----10---9--7--5--7--|
E|----------------------------|

e|-------------------------------------------------------------|
B|-------------------------------------------------------------|
G|-12--12----12--12--9--7------12--12--9--7-----11--9----------|
D|-12--12----12--12--9--7--9---12--12--9--7--9--11--9----------|
A|-10---9----10---9--7--5--9---10---9--7--5--9---9--7---2x-2x--|
E|-------------------------7-----------------7----------0x-0x--|


VERSE (01:16)

e|-------------------------|-----------------------|
B|-------------------------|-----------------------|
G|-------------------------|---------7---7---5-----|
D|---------2---2---2---2---|---------7---7---5-----|
A|-0-0-0-0-0-0-0-0-0-0-0---|-0-0-0-0---0---0-------|
E|-------------------------|-----------------------|
   • • • •   •   •   •       • • • •   •   • 

e|---------------------------------|
B|---------------------------------|
G|-----------------------9-----9---|
D|-7-7-7-7---------------9-----9---|
A|-5-5-5-5--5-5-5-5------7-----7---|
E|----------3-3-3-3--0-0---0-0-----|
   • • • •  • • • •  • •   • •

e|-------------------------|-----------------------|
B|-------------------------|-----------------------|
G|---------5--2---0---2----|---------5---7---5-----|
D|---------5--2---0---2----|---------5---7---5-----|
A|-0-0-0-0--0---0---0---0--|-0-0-0-0---0---0-------|
E|-------------------------|-----------------------|
   • • • •  •   •   •   •    • • • •   •   • 

e|-----------------------------|
B|-----------------------------|
G|-----------------------------|
D|-7-7-7-7-----------5-5--9-9--|
A|-5-5-5-5--5-5-5-5--5-5--9-9--|
E|----------3-3-3-3--3-3--7-7--|
   • • • •  • • • • 

CHORUS (01:38)

BRIDGE INTO SOLO (01:57)

e|--------------------------------------------------------|
B|--------------------------------------------------------|
G|---------------------4--2----------------------2--4-----|
D|------------------2--4--2----------------------2--4--2--|
A|------------------2--2--0-----0-0-0-0-0-0-0-0--0--2--2--|
E|-0-0-0-0-0-0-0-0--0----------------------------------0--|
   • • • • • • • •              • • • • • • • •

e|---------------------------------------------------------------------|
B|---------------------------------------------------------------------|
G|---------------------4--2----------------------7--5--7--9-9-9-9-9-9--|
D|------------------2--4--2----------------------7--5--7--9-9-9-9-9-9--|
A|------------------2--2--0----------------------5--3--5--7-7-7-7-7-7--|
E|-0-0-0-0-0-0-0-0--0-----------3-3-3-3-0-0-0-0------------------------|
   • • • • • • • •              • • • • • • • •

SOLO (02:23)

e|--------------------------------------------------------------------|
B|--------------------------------------------------------------------|
G|----------5~------------5~--<7>------------5~---<7>^<8>-7--5h7p5----|
D|-5h7--7-7----7-7--5h7-7---7-------5h7--7-7---7-------------------7~-|
A|--------------------------------------------------------------------|
E|--------------------------------------------------------------------|
        • •    • •      •   •            • •   •

e|--------------------------------------5--3h5p3--0-3--7^8--7h8p7--5--3*~~|
B|--------------------------5h8p5---5-7-----------------------------------|
G|-------5-6-7-------5-6-7--------7---------------------------------------|
D|-5-6-7-------5-6-7------------------------------------------------------|
A|------------------------------------------------------------------------|
E|------------------------------------------------------------------------|

e|-------------------------------------------------------|
B|-5-3h5p3------5-3h5p3------5-3h5p3------5-3h5p3--------|
G|---------4-5----------4-5----------4-5----------4---5--|
D|-------------------------------------------------------|
A|-------------------------------------------------------|
E|-------------------------------------------------------|

e|---------------------333-<5>---8-7h8p7--5-7-8-10-8\----|
B|-------------333-555-----------------------------8\----|
G|-222-444-555-------------------------------------------|
D|-------------------------------------------------------|
A|-------------------------------------------------------|
E|-------------------------------------------------------|
   ••• ••• ••• ••• ••• •••

* = Whammy bar thing

(I might have placed the solo in the wrong place, but what the heck)

RHYTHM GUITAR UNDERNEATH SOLO

e|----------------------------------------------------------|
B|----------------------------------------------------------|
G|-------------------------------------------------9-----9--|
D|-2-2-2-2-------------------7-7-7-7---------------9-----9--|x2
A|-0-0-0-0--0-0-2-2-3-3-4-4--5-5-5-5--5-5-5-5------7-----7--|
E|------------------------------------3-5-3-3--0-0---0-0----|
   • • • •  • • • • • • • •  • • • •  • • • •  • •   • •

Note: Not the exact number of strokes!

CHORUS (02:45)

ENDING (03:81)

e|-------------------------------|
B|-------------------------------|
G|-16--14--12--11------9---9--9--|
D|-x---x---x---x---12--x---9--9--|
A|-14--12--10--9---x---7---7--7--|
E|-----------------10------------|
                           •  •

There you go, have fun!
Добавлено: 18.07.2012
Другие материалы по этой песне:

Страница создана 01.06.2012
http://primanota.ru/terasbetoni/tuonelaan-chords.htm
Привет, Гость.
Предлагаем пройти революционный курс по гитаре.
Подарок от PrimaNota.Ru, забирай!