PrimaNota.ru - самый крупный в мире бесплатный архив песенных текстов, аккордов, табулатур и нот


Terasbetoni - Maljanne Nostakaa - текст песни, таба, видео

Регистрация Запомнить меня
Войти через:  Facebook Google Twitter Vk Yandex Mail.ru

Terasbetoni - Maljanne Nostakaa - текст песни, таба, видео

Печатать
Просмотров: 195
Teräsbetoni - Maljanne Nostakaa

Album: Metallitotuus (Metal Truth)

Tabbed by: Lazzle22

Email: Lasse2411@hotmail.com
-----------------------------

h   - hammer-on
p   - pull-off
^   - bend
~   - vibrato
/\  - slide
X\\ - pick scrape
<3> - harmonic
X   - mute/hit dead note
•   - palm mute
*   - Natural Harmonic (or notice)
... - Continuity

Tuning is: Standard (EADGBe)

PIANO INTRO (00:00)

VERSE (00:08)

GUITAR INTRO (00:41)

e|-------------------------------------------|
B|--------------------8-8-6-5----------------| *Don't be confused
G|-----5-7b9r7-7~--/----------7~--7b9r7~--/--|  by the /'s. You
D|-5h7---------------------------------------|  just hold the note
A|-------------------------------------------|  some time, before
E|-------------------------------------------|  you slide*

e|-----------------------------------------|
B|------------------------5-5~--6p5--------|
G|-----5---5-7b9r7--5~--7-----------7~--/--|
D|-5h7---7---------------------------------|
A|-----------------------------------------|
E|-----------------------------------------|

PRE-CHORUS (00:59)

e|--------------------------------------|
B|--------------------------------------|
G|-5-----5--5--------7------------------|
D|-5-----5--5---5----7----7---5--3---5--|
A|-3-----3--3---5----5----7---5--3---5--|
E|-----3--------3---------5---3--1---3--|
       • 

e|--------------------------------|
B|--------------------------------|
G|-5-------------------7----------|
D|-5-----2---7--5--3---7---3---5--|
A|-3-----2---7--5--3---5---3---5--|
E|-------0---5--3--1-------1---3--|

CHORUS (01:33)       

e|-----------------------------------|
B|-----------------------------------|
G|-----5---2---5-7--5--3-----3--5----|
D|-3---5---2---5-7--5--3--5--3--5----|
A|-3---3---0---3-5--3--1--5--1--3----|
E|-1----------------------3----------|

e|---------------------------------------------|
B|---------------------------------------------|
G|-----5---2---5-7--5--3-----5-----5--5--------|
D|-3---5---2---5-7--5--3--5--5-----5--5--------|
A|-3---3---0---3-5--3--1--5--3-----3--3---5--/-|
E|-1----------------------3------3-------------|

PRE-CHORUS (02:14)

CHORUS (02:48)

VERSE (03:24)

BRIDGE (03:56)

e|----|
B|----|
G|----| x16
D|-3--|  
A|-3--| *Gradually less pressure on the palm mute*
E|-1--|
   • 

CHORUS (04:00)

e|-----------------------------------|
B|-----------------------------------|
G|-----5---2---5-7--5--3-----3--5----|
D|-3---5---2---5-7--5--3--5--3--5----|
A|-3---3---0---3-5--3--1--5--1--3----|
E|-1----------------------3----------|

e|------------------------------|
B|------------------------------|
G|-----5---2---5-7--5--3-----5--|
D|-3---5---2---5-7--5--3--5--5--|
A|-3---3---0---3-5--3--1--5--3--|
E|-1----------------------3-----|

CHORUS (04:33)

e|-----------------------------------|
B|-----------------------------------|
G|-----5---2---5-7--5--3-----3--5----|
D|-3---5---2---5-7--5--3--5--3--5----|
A|-3---3---0---3-5--3--1--5--1--3----|
E|-1----------------------3----------|

I don't know if this is only in the song I've been listening to.
But I hear a very "out-of-place" "note" here.

e|-\19/17x--|
B|----------|
G|----------|
D|----------|
A|----------|
E|----------|


e|------------------------------|
B|------------------------------|
G|-----5---2---5-7--5--3-----5--|
D|-3---5---2---5-7--5--3--5--5--|
A|-3---3---0---3-5--3--1--5--3--|
E|-1----------------------3-----|
 
e|----|
B|----|
G|----| x16
D|-3--|  
A|-3--| *Gradually less pressure on the palm mute*
E|-1--|
   •
CHORUS (05:07)

e|-----------------------------------|
B|-----------------------------------|
G|-----5---2---5-7--5--3-----3--5----|
D|-3---5---2---5-7--5--3--5--3--5----|
A|-3---3---0---3-5--3--1--5--1--3----|
E|-1----------------------3----------|

e|-\19/17x--|
B|----------|
G|----------|
D|----------|
A|----------|
E|----------|

e|------------------------------|
B|------------------------------|
G|-----5---2---5-7--5--3-----5--|
D|-3---5---2---5-7--5--3--5--5--|
A|-3---3---0---3-5--3--1--5--3--|
E|-1----------------------3-----|

This is basically repeated until the song has faded out.

That was that, no cool solo or anything, more like a slow
and epic song. Hope you have fun!
Добавлено: 31.05.2012
Другие материалы по этой песне:
  • Аккорды и текст

Страница создана 31.05.2012
http://primanota.ru/terasbetoni/maljanne-nostakaa-chords.htm
Привет, Гость.
Предлагаем пройти революционный курс по гитаре.
Подарок от PrimaNota.Ru, забирай!