PrimaNota.ru - самый крупный в мире бесплатный архив песенных текстов, аккордов, табулатур и нот


Terabrite - We Wear The Mask - таба, видео

Регистрация Запомнить меня
Войти через:  Facebook Google Twitter Vk Yandex Mail.ru

Terabrite - We Wear The Mask - таба, видео

Печатать
Просмотров: 92
We Wear The Mask
Pop Punk Cover By Terabrite
Orgininal Poem By Paul Laurence Dunbar

This tab is not perfect coz i learned them just by ear :D and im just starting to learn 
by ear how awesome is that.

This is not them im just a fan who likes to play guitar and likes pop rock genre and i 
like terabrite . So if anybody find this tabs cool let them know :D.

Tuning:Drop C sharp
(Both Electric Guitars) and Acoustic Guitar

Intro/Chorus-Lead
D#------------------------------------------------------------||
A#-7h8------------------7h8p7-7h8-------------------7h8-------||
F#----7h9----(3x)-----7----------7h9----(2x)-----7h9----(2x)--||  2x
C#-------7h9------7h9---------------7h9-------7h9-------------||
G#------------------------------------------------------------||
C#------------------------------------------------------------||


Intro/Chorus-Rythm
D#---------------------------------------||
A#---------------------------------------||
F#-x-7--7--7-7--x-x-x-x--x-7-7--x-x-7-5--||
C#-x-5--5--5-5--x-x-x-x--x-5-5--x-x-5-5--||
G#-x-5--5--5-5--x-x-x-x--x-5-5--x-x-5-5--||
C#-x-5--5--5-5--x-x-x-x--x-5-5--x-x-5-5--||

D#-----------------------------------------||
A#-----------------------------------------||
F#-x-11-11-1111-x-x-x-x--x-9-9--x-x-14-14--||
C#-x-9--9--9-9--x-x-x-x--x-7-7--x-x-12-12--||
G#-x-9--9--9-9--x-x-x-x--x-7-7--x-x-12-12--||
C#-x-9--9--9-9--x-x-x-x--x-7-7--x-x-12-12--||


Verse-Lead
We wear the mask that grins and lies,

D#-----------------------------------||
A#-----------------------------------||
F#-7-7-7-7-7-7-7-7--9-9-9-9-9-9-9-9--||
C#-----------------------------------||
G#-5-5-5-5-5-5-5-5--7-7-7-7-7-7-7-7--||
C#-----------------------------------||

D#--------------------------------------------||
A#--------------------------------------------||
F#-14-14-14-14-14-14-14-14--11111111-9-9-9-9--||
C#--------------------------------------------||
G#-12-12-12-12-12-12-12-12--9-9-9-9--7-7-7-7--||
C#--------------------------------------------||

D#-----------------------------------||
A#-----------------------------------||
F#-7-7-7-7-7-7-7-7--9-9-9-9-9-9-9-9--||
C#-----------------------------------||
G#-5-5-5-5-5-5-5-5--7-7-7-7-7-7-7-7--||
C#-----------------------------------||

D#-------------------------------------------||
A#-------------------------------------------||
F#-14-14-14-14-14-14-14-14--x-1111--x-x-9-9--||
C#--------------------------x-9-9---x-x-7-7--||
G#-12-12-12-12-12-12-12-12--x-9-9---x-x-7-7--||
C#--------------------------x-9-9---x-x-7-7--||

Then

D#------------------------------------||
A#------------------------------------||
F#------------7-7-7--9-9-9-9-9-9-9-9--||
C#-x-x-x-x-x--------------------------||
G#-x-x-x-x-x--5-5-5--7-7-7-7-7-7-7-7--||
C#-x-x-x-x-x--------------------------||

D#-----------------------------------------------||
A#-----------------------------------------------||
F#-14-14-14-14-14-14-14-14--x-1111--9-9-9-9-9-9--||
C#--------------------------x-9-9----------------||
G#-12-12-12-12-12-12-12-12--x-9-9---7-7-7-7-7-7--||
C#--------------------------x-9-9----------------||

Verse-Rythm

D#-----------------------------------||
A#-----------------------------------||
F#------------------9-9-9-9-9-9-9-9--||
C#-0-0-0-0-0-0-0-0-------------------||
G#-0-0-0-0-0-0-0-0--7-7-7-7-7-7-7-7--||
C#-0-0-0-0-0-0-0-0-------------------||

D#-----------------------------------||
A#-----------------------------------||
F#-11111111111111111111111111111111--||
C#-----------------------------------||
G#-9-9-9-9-9-9-9-9-9-9-9-9-9-9-9-9---||
C#-----------------------------------||

D#-----------------------------------||
A#-----------------------------------||
F#------------------9-9-9-9-9-9-9-9--||
C#-0-0-0-0-0-0-0-0-------------------||
G#-0-0-0-0-0-0-0-0--7-7-7-7-7-7-7-7--||
C#-0-0-0-0-0-0-0-0-------------------||

D#-------------------------------------------||
A#-------------------------------------------||
F#-14-14-14-14-14-14-14-14--x-1111--x-x-9-9--||
C#--------------------------x-9-9---x-x-7-7--||
G#-12-12-12-12-12-12-12-12--x-9-9---x-x-7-7--||
C#--------------------------x-9-9---x-x-7-7--||

Then
D#-----------------------------------||
A#-----------------------------------||
F#------------------9-9-9-9-9-9-9-9--||
C#-0-0-0-0-0-0-0-0-------------------||
G#-0-0-0-0-0-0-0-0--7-7-7-7-7-7-7-7--||
C#-0-0-0-0-0-0-0-0-------------------||

D#-----------------------------------------------||
A#-----------------------------------------------||
F#-14-14-14-14-14-14-14-14--x-1111--9-9-9-9-9-9--||
C#--------------------------x-9-9----------------||
G#-12-12-12-12-12-12-12-12--x-9-9---7-7-7-7-7-7--||
C#--------------------------x-9-9----------------||

Chorus- Do Rythm Intro two times First Then Lead and Ryhtm at the same time :D.
Why should the world be over-wise,

Then Verse
We smile, but, O great Christ, our cries
Do this verse only once then the second part will be
Lead                                             Rythm
D#------------------------------------------||   D#----------------||
A#------------------------------------------||   A#----------------||
F#-7~----9~-----7~----14-14-14-14-14-14-14--||   F#-7~----9~----7--||(Then
C#------------------------------------------||   C#-5~----7~----5--||Stop)
G#-5~----7~-----5~----12-12-12-12-12-12-12--||   G#-5~----7~----5--||
C#------------------------------------------||   C#-5~----7~----5--||

Then Chorus-As always do the intro rythm first then lead and rythm blahblahblah.
Why should the world be over-wise,

Then Bridge
We wear the mask

D#--------------------------||  D#--------------------------||
A#--------------------------||  A#--------------------------||
F#-----------7-7-7-7--------||  F#-----------7-7-7-7--------||
C#-0--0--0------------(4x)--||  C#-5--5--5------------(4x)--||(Both for
G#-0--0--0---5-5-5-5--------||  G#-5--5--5---5-5-5-5--------||Two Times)
C#-0--0--0------------------||  C#-5--5--5------------------||

Acoustic
Im Not sure about this but it sounds like it

D#----------------------------------------------||
A#----------------------------------------------||
F#-------------------------14--14--14-14-14--9--||
C#-0--0--x-x-x-x-x--5-5-5--12--12--12-12-12--7--||
G#-0--0--x-x-x-x-x--5-5-5--12--12--12-12-12--7--||(Do the last strum Once
C#-0--0--x-x-x-x-x--5-5-5--12--12--12-12-12--7--||or twice :D)

Then Last Chorus
Rythm 4x
then Lead Rythm 4x :D

end
:D:D:D:D:D:D:D:D:D:D:D:D:D:D:D:D:D:D:D:D:D:D:D:D:D:D:D:D:D:D
Добавлено: 07.06.2013
Вам также может быть интересно:
Другие материалы по этой песне:
  • Аккорды и текст

Страница создана 07.06.2013
http://primanota.ru/terabrite/we-wear-the-mask-chords.htm
Привет, Гость.
Предлагаем пройти революционный курс по гитаре.
Подарок от PrimaNota.Ru, забирай!