PrimaNota.ru - самый крупный в мире бесплатный архив песенных текстов, аккордов, табулатур и нот


Terabrite - My Own Path - таба, видео

Регистрация Запомнить меня
Войти через:  Facebook Google Twitter Vk Yandex Mail.ru

Terabrite - My Own Path - таба, видео

Печатать
Просмотров: 90
My Own Path By TeraBrite

My Own Path by TeraBrite
http://www.youtube.com/watch?v=GhZjVwlaipY

TeraBrite Website
terabrite.tv
 
this is my first tab and i learned it by ear so its not perfect :)
enjoy :D

Intro:x2
There is nothing that can stand in my way
D#-----------------------------------------------|
A#-----------------------------------------------|
F#-----------------------------------------------|
C#-4-4--4--4--4--4-4--4--4-4--4--4--4--4-4-4-4-4-|
G#-5-5--5--5--5--5-5--5--5-5--5--5--5--5-5-5-5-5-|
C#-----------------------------------------------|
   . .     .     . .     . .     .   

D#---------------------------------|
A#---------------------------------|
F#---------------------------------|
C#-5--5--5-5-5--0-0--7-7-7-7-7-7-7-|
G#-5--5--5-5-5--0-0--7-7-7-7-7-7-7-|
C#-5--5--5-5-5--0-0--7-7-7-7-7-7-7-|

Chorus:
Cause now I've got a hold of what I'm thinking
D#----------------------5-5----|
A#-3--3--3-3-3--5-5--3--3-3--3-|
F#-----------------------------|
C#-4--4--4-4-4--4-4--4--4-4--4-|
G#-5--5--5-5-5--5-5--5--5-5--5-|
C#-----------------------------|

D#-2--2--2-2-2--3--2-2--2--2-2-|
A#-3--3--3-3-3--3--3-3--3--3-3-|
F#-2--2--2-2-2--2--2-2--2--2-2-|
C#-----------------------------|
G#-----------------------------|
C#-----------------------------|

D#--------------5--5-5---------|
A#-3--3--3-3-3--3--3-3--3--3-3-|
F#-----------------------------|
C#-4--4--4-4-4--4--4-4--4--4-4-|
G#-5--5--5-5-5--5--5-5--5--5-5-|
C#-----------------------------|

D#-2--2--2-2-2--3--2-2--2--2-2-|
A#-3--3--3-3-3--3--3-3--3--3-3-|
F#-2--2--2-2-2--2--2-2--2--2-2-|
C#-----------------------------|
G#-----------------------------|
C#-----------------------------|

D#----------------------------|
A#----------------------------|
F#-4--4--4-4-4----------------|
C#-4--4--4-4-4--5--5-5--5-5-5-|
G#-2--2--2-2-2--5--5-5--5-5-5-|
C#--------------5--5-5--5-5-5-|

D#--------------5--5-5---------|
A#-3--3--3-3-3--3--3-3--3--3-3-|
F#-----------------------------|
C#-4--4--4-4-4--4--4-4--4--4-4-|
G#-5--5--5-5-5--5--5-5--5--5-5-|
C#-----------------------------|

D#----------------------------|
A#----------------------------|
F#-4--4--4-4-4----------------|
C#-4--4--4-4-4--5--5-5--5-5-5-|
G#-2--2--2-2-2--5--5-5--5-5-5-|
C#--------------5--5-5--5-5-5-|

D#----------------------------|
A#----------------------------|
F#----------------------------|
C#-0-0--0--0-0--0--0-0--0-----|
G#-0-0--0--0-0--0--0-0--0-----|
C#-0-0--0--0-0--0--0-0--0-----|
   . .     . .     . .

D#-2-----3-----2-|
A#---3-----3-----|
F#-----2-----2---|
C#---------------|
G#---------------|
C#---------------|

D#----------------------------|
A#----------------------------|
F#-4--4--4-4-4----------------|
C#-4--4--4-4-4--5--5-5--5-5-5-|
G#-2--2--2-2-2--5--5-5--5-5-5-|
C#--------------5--5-5--5-5-5-|

D#--------------5--5-5---------|
A#-3--3--3-3-3--3--3-3--3--3-3-|
F#-----------------------------|
C#-4--4--4-4-4--4--4-4--4--4-4-|
G#-5--5--5-5-5--5--5-5--5--5-5-|
C#-----------------------------|

D#----------------------------|
A#----------------------------|
F#-4--4--4-4-4----------------|
C#-4--4--4-4-4--5--5-5--5-5-5-|
G#-2--2--2-2-2--5--5-5--5-5-5-|
C#--------------5--5-5--5-5-5-|

D#----------------------------|
A#----------------------------|
F#----------------------------|
C#-0-0--0--0-0--0--0-0--0-----|
G#-0-0--0--0-0--0--0-0--0-----|
C#-0-0--0--0-0--0--0-0--0-----|
   . .     . .     . .

D#-2-----3-----2-|
A#---3-----3-----|
F#-----2-----2---|
C#---------------|
G#---------------|
C#---------------|

Verse:x2
I'm holding happiness in my hands
It's something you can't understand no

D#-----------------------------------------------|
A#-----------------------------------------------|
F#-----------------------------------------------|
C#-4-4--4--4--4--4-4--4--4-4--4--4--4--4-4-4-4-4-|
G#-5-5--5--5--5--5-5--5--5-5--5--5--5--5-5-5-5-5-|
C#-----------------------------------------------|
   . .     .     . .     . .     .   

D#---------------------------------|
A#---------------------------------|
F#---------------------------------|
C#-5--5--5-5-5--0-0--7-7-7-7-7-7-7-|
G#-5--5--5-5-5--0-0--7-7-7-7-7-7-7-|
C#-5--5--5-5-5--0-0--7-7-7-7-7-7-7-|


Chorus:

D#----------------------5-5----|
A#-3--3--3-3-3--5-5--3--3-3--3-|
F#-----------------------------|
C#-4--4--4-4-4--4-4--4--4-4--4-|
G#-5--5--5-5-5--5-5--5--5-5--5-|
C#-----------------------------|

D#-2--2--2-2-2--3--2-2--2--2-2-|
A#-3--3--3-3-3--3--3-3--3--3-3-|
F#-2--2--2-2-2--2--2-2--2--2-2-|
C#-----------------------------|
G#-----------------------------|
C#-----------------------------|

D#--------------5--5-5---------|
A#-3--3--3-3-3--3--3-3--3--3-3-|
F#-----------------------------|
C#-4--4--4-4-4--4--4-4--4--4-4-|
G#-5--5--5-5-5--5--5-5--5--5-5-|
C#-----------------------------|

D#-2--2--2-2-2--3--2-2--2--2-2-|
A#-3--3--3-3-3--3--3-3--3--3-3-|
F#-2--2--2-2-2--2--2-2--2--2-2-|
C#-----------------------------|
G#-----------------------------|
C#-----------------------------|

D#----------------------------|
A#----------------------------|
F#-4--4--4-4-4----------------|
C#-4--4--4-4-4--5--5-5--5-5-5-|
G#-2--2--2-2-2--5--5-5--5-5-5-|
C#--------------5--5-5--5-5-5-|

D#--------------5--5-5---------|
A#-3--3--3-3-3--3--3-3--3--3-3-|
F#-----------------------------|
C#-4--4--4-4-4--4--4-4--4--4-4-|
G#-5--5--5-5-5--5--5-5--5--5-5-|
C#-----------------------------|

D#----------------------------|
A#----------------------------|
F#-4--4--4-4-4----------------|
C#-4--4--4-4-4--5--5-5--5-5-5-|
G#-2--2--2-2-2--5--5-5--5-5-5-|
C#--------------5--5-5--5-5-5-|

D#----------------------------|
A#----------------------------|
F#----------------------------|
C#-0-0--0--0-0--0--0-0--0-----|
G#-0-0--0--0-0--0--0-0--0-----|
C#-0-0--0--0-0--0--0-0--0-----|
   . .     . .     . .

D#-2-----3-----2-|
A#---3-----3-----|
F#-----2-----2---|
C#---------------|
G#---------------|
C#---------------|

D#----------------------------|
A#----------------------------|
F#-4--4--4-4-4----------------|
C#-4--4--4-4-4--5--5-5--5-5-5-|
G#-2--2--2-2-2--5--5-5--5-5-5-|
C#--------------5--5-5--5-5-5-|

D#--------------5--5-5---------|
A#-3--3--3-3-3--3--3-3--3--3-3-|
F#-----------------------------|
C#-4--4--4-4-4--4--4-4--4--4-4-|
G#-5--5--5-5-5--5--5-5--5--5-5-|
C#-----------------------------|

D#----------------------------|
A#----------------------------|
F#-4--4--4-4-4----------------|
C#-4--4--4-4-4--5--5-5--5-5-5-|
G#-2--2--2-2-2--5--5-5--5-5-5-|
C#--------------5--5-5--5-5-5-|

D#----------------------------|
A#----------------------------|
F#----------------------------|
C#-0-0--0--0-0--0--0-0--0-----|
G#-0-0--0--0-0--0--0-0--0-----|
C#-0-0--0--0-0--0--0-0--0-----|
   . .     . .     . .

D#-2-----3-----2-|
A#---3-----3-----|
F#-----2-----2---|
C#---------------|
G#---------------|
C#---------------|


Bridge:
Oh uh oh oh, I will take my own path
Oh uh oh oh, I won't change myself

D#--------------------------------------------|
A#--------------------------------------------|
F#--------------------------------------------|
C#-5-5--5--5--5--5-5--5--7-7--7--7--7--7-7--7-|
G#-5-5--5--5--5--5-5--5--7-7--7--7--7--7-7--7-|
C#-5-5--5--5--5--5-5--5--7-7--7--7--7--7-7--7-|
   . .     .     . .     . .     .     . .

D#--------------------------------------------|
A#--------------------------------------------|
F#--------------------------------------------|
C#-0-0--0--0--0---0-0--0--2-2--2--2--2--2-2--2|
G#-0-0--0--0--0---0-0--0--2-2--2--2--2--2-2--2|
C#-0-0--0--0--0---0-0--0--2-2--2--2--2--2-2--2|
   . .     .      . .     . .     .     . .     

D#--------------------------------------------|
A#--------------------------------------------|
F#--------------------------------------------|
C#-5-5--5--5--5--5-5--5--7-7--7--7--7--7-7--7-|
G#-5-5--5--5--5--5-5--5--7-7--7--7--7--7-7--7-|
C#-5-5--5--5--5--5-5--5--7-7--7--7--7--7-7--7-|
   . .     .     . .     . .     .     . .

D#--------------------------------------------|
A#--------------------------------------------|
F#--------------------------------------------|
C#-0-0--0--0--0---0-0--0--2-2--2--2--2--2-2--2|
G#-0-0--0--0--0---0-0--0--2-2--2--2--2--2-2--2|
C#-0-0--0--0--0---0-0--0--2-2--2--2--2--2-2--2|
   . .     .      . .     . .     .     . .    

D#--------------------------------------------|
A#--------------------------------------------|
F#------7-----7-------7-------9-----9-------9-|
C#-5-5--5--5--5--5-5--5--7-7--7--7--7--7-7--7-|
G#-5-5--5--5--5--5-5--5--7-7--7--7--7--7-7--7-|
C#-5-5--5--5--5--5-5--5--7-7--7--7--7--7-7--7-|
   . .     .     . .     . .     .     . .

A#--------------------------------------------|
F#------2-----2-------2-----------------------|
C#-0-0--0--0--0--0-0--0--2-2--2--2--2--2-2--2-|
G#-0-0--0--0--0--0-0--0--2-2--2--2--2--2-2--2-|
C#-0-0--0--0--0--0-0--0--2-2--2--2--2--2-2--2-|
   . .     .     . .     . .     .     . .

D#--------------------------------------------|
A#--------------------------------------------|
F#------7-----7-------7-------9-----9-------9-|
C#-5-5--5--5--5--5-5--5--7-7--7--7--7--7-7--7-|
G#-5-5--5--5--5--5-5--5--7-7--7--7--7--7-7--7-|
C#-5-5--5--5--5--5-5--5--7-7--7--7--7--7-7--7-|
   . .     .     . .     . .     .     . .

D#----------------------------------------|
A#----------------------------------------|
F#----------------------------------------|
C#-0-0-0-0-0-0-0-0-0-0-2-2-2-2-2-2-2-2----|
G#-0-0-0-0-0-0-0-0-0-0-2-2-2-2-2-2-2-2----|
C#-0-0-0-0-0-0-0-0-0-0-2-2-2-2-2-2-2-2----|

D#--------------------------------|
A#--------------------------------|
F#-7--7--7-7-7--9--9-9--9-9-9-9---|
C#-5--5--5-5-5--7--7-7--7-7-7-7---|
G#-5--5--5-5-5--7--7-7--7-7-7-7---|
C#-5--5--5-5-5--7--7-7--7-7-7-7---|

D#--------------------------------|
A#--------------------------------|
F#--------------------------------|
C#-0--0--0-0-0--2--2-2--2-2-2-2---|
G#-0--0--0-0-0--2--2-2--2-2-2-2---|
C#-0--0--0-0-0--2--2-2--2-2-2-2---|

D#--------------------------------|
A#--------------------------------|
F#-7--7--7-7-7--9--9-9--9-9-9-9---|
C#-5--5--5-5-5--7--7-7--7-7-7-7---|
G#-5--5--5-5-5--7--7-7--7-7-7-7---|
C#-5--5--5-5-5--7--7-7--7-7-7-7---|

D#--------------------------------|
A#--------------------------------|
F#--------------------------------|
C#-0--0--0-0-0--2--2-2--2-2-2-2---|
G#-0--0--0-0-0--2--2-2--2-2-2-2---|
C#-0--0--0-0-0--2--2-2--2-2-2-2---|

D#---------------------------------|
A#---------------------------------|
F#-7x--7--7-7-7--9--9-9--9-9-9-9---|
C#-5x--5--5-5-5--7--7-7--7-7-7-7---|
G#-5x--5--5-5-5--7--7-7--7-7-7-7---|
C#-5x--5--5-5-5--7--7-7--7-7-7-7---|

D#--------------------------------|
A#--------------------------------|
F#--------------------------------|
C#-0--0--0-0-0--2--2-2--2-2-2-2---|
G#-0--0--0-0-0--2--2-2--2-2-2-2---|
C#-0--0--0-0-0--2--2-2--2-2-2-2---|

D#---------------------------|
A#---------------------------|
F#-7--7--7-7-7--9--9-9--9x---|
C#-5--5--5-5-5--7--7-7--7x---|
G#-5--5--5-5-5--7--7-7--7x---|
C#-5--5--5-5-5--7--7-7--7x---|

Outro:
Yeah you will never know

D#----------------------------|
A#----------------------------|
F#-4--4--4-4-4----------------|
C#-4--4--4-4-4--5--5-5--5-5-5-|
G#-2--2--2-2-2--5--5-5--5-5-5-|
C#--------------5--5-5--5-5-5-|

D#--------------5--5-5---------|
A#-3--3--3-3-3--3--3-3--3--3-3-|
F#-----------------------------|
C#-4--4--4-4-4--4--4-4--4--4-4-|
G#-5--5--5-5-5--5--5-5--5--5-5-|
C#-----------------------------|

D#----------------------------|
A#----------------------------|
F#-4--4--4-4-4----------------|
C#-4--4--4-4-4--5--5-5--5-5-5-|
G#-2--2--2-2-2--5--5-5--5-5-5-|
C#--------------5--5-5--5-5-5-|

D#----------------------------|
A#----------------------------|
F#----------------------------|
C#-0-0--0--0-0--0--0-0--0-----|
G#-0-0--0--0-0--0--0-0--0-----|
C#-0-0--0--0-0--0--0-0--0-----|
   . .     . .     . .

D#-2-----3-----2-|
A#---3-----3-----|
F#-----2-----2---|
C#---------------|
G#---------------|
C#---------------|

D#----------------------------|
A#----------------------------|
F#-4--4--4-4-4----------------|
C#-4--4--4-4-4--5--5-5--5-5-5-|
G#-2--2--2-2-2--5--5-5--5-5-5-|
C#--------------5--5-5--5-5-5-|

D#--------------5--5-5---------|
A#-3--3--3-3-3--3--3-3--3--3-3-|
F#-----------------------------|
C#-4--4--4-4-4--4--4-4--4--4-4-|
G#-5--5--5-5-5--5--5-5--5--5-5-|
C#-----------------------------|

D#----------------------------|
A#----------------------------|
F#-4--4--4-4-4----------------|
C#-4--4--4-4-4--5--5-5--5-5-5-|
G#-2--2--2-2-2--5--5-5--5-5-5-|
C#--------------5--5-5--5-5-5-|

D#----------------------------|
A#----------------------------|
F#----------------------------|
C#-0-0--0--0-0--0--0-0--0-----|
G#-0-0--0--0-0--0--0-0--0-----|
C#-0-0--0--0-0--0--0-0--0-----|
   . .     . .     . .

D#-2-----3-----2-|
A#---3-----3-----|
F#-----2-----2---|
C#---------------|
G#---------------|
C#---------------|

D#----------------------------|
A#----------------------------|
F#----------------------------|
C#-0-0--0--0-0--0--0-0--0-----|
G#-0-0--0--0-0--0--0-0--0-----|
C#-0-0--0--0-0--0--0-0--0-----|
   . .     . .     . .

D#-2-----3---------|
A#---3-----3-------|
F#-----2-----2---0-|
C#---------------0-|
G#---------------0-|
C#-----------------|

END :D
Добавлено: 22.08.2013
Вам также может быть интересно:
Другие материалы по этой песне:
  • Аккорды и текст

Страница создана 22.08.2013
http://primanota.ru/terabrite/my-own-path-chords.htm
Привет, Гость.
Предлагаем пройти революционный курс по гитаре.
Подарок от PrimaNota.Ru, забирай!