PrimaNota.ru - самый крупный в мире бесплатный архив песенных текстов, аккордов, табулатур и нот


Tera Melos - When Worms Learn To Fly - таба, видео

Регистрация Запомнить меня
Войти через:  Facebook Google Twitter Vk Yandex Mail.ru

Tera Melos - When Worms Learn To Fly - таба, видео

Печатать
Просмотров: 104
Уроки эстрадного вокала в Санкт-Петербурге
-------------------------------------------------------------------------------
                Tera Melos - When Worms Learn To Fly (solo)
-------------------------------------------------------------------------------
Tabbed by: Andrew Tamalunas
Email: lmaonade123@gmail.com

Tuning: EADGBe standard tuning.


This is the tapping part. I did a cover if you want to look it up on Youtube, it pretty
shows how to play it if you can't figure it out right away. I mean, hell, this is Nick
how could it NOT be confusing? For the hammer-ons sometimes it doesn't say a 0 before 
the hammer-on, that's because he doesn't hit the open string.


    Main part, play it fast and tap the 19's.

     T           T          T           T
e|----------------------------------------------------------|
B|--19p0----------------------------------------------------|
G|--------h4h5h7-19p0h4h5h7-19p0h4h5h7----------------------|
D|--------------------------------------19h0h4h5h7----------|
A|----------------------------------------------------------|
E|----------------------------------------------------------|

The fill, I know these are the notes but instead of playing it twice I think he does
slower... oh well, sounds right. Play 2 times all except for the 2nd to last time, then
it 4.

    T           T           T           T
e|------------------------------------------------------------------|
B|------------------------------------------------------------------|
G|--19p0h4h5h7--------------19p0h4h5h7------------------------------|
D|--------------19p0h4h5h7--------------19p0h4h5h7------------------|
A|------------------------------------------------------------------|
E|------------------------------------------------------------------|


    LAST NOTE

     T
e|-----------|
B|---19------|
G|-----------|
D|-----------|
A|-----------|
E|-----------|

| /  slide up
| \  slide down
| h  hammer-on
| p  pull-off
| ~  vibrato
| +  harmonic
| x  Mute note
| T  Tapping
===============================================================================
Добавлено: 10.04.2012
Другие материалы по этой песне:
  • Аккорды и текст

Страница создана 10.04.2012
http://primanota.ru/tera-melos/when-worms-learn-to-fly-chords.htm
Привет, Гость.
Предлагаем пройти революционный курс по гитаре.
Подарок от PrimaNota.Ru, забирай!