PrimaNota.ru - самый крупный в мире бесплатный архив песенных текстов, аккордов, табулатур и нот


Tera Melos - Sunburn - таба, видео

Регистрация Запомнить меня
Войти через:  Facebook Google Twitter Vk Yandex Mail.ru

Tera Melos - Sunburn - таба, видео

Печатать
Просмотров: 68
A:
Main riff:
(Repeat x4)
e |---------------------------------------------|
B |--------------2--------------------2---------|
G |-----4-----------3--------4-----------3------|
D |--1-----2--4--------4--1-----2--4--------4---|
A |---------------------------------------------|
E |---------------------------------------------|


Bridge:

e |-----------2---------------------------------------|
B |--0--4--0-----4-----4---------------------2--------|
G |-----------------------4---------4-----------3-----|
D |-----------------4--------4---------2--4--------4--|
A |---------------------------------------------------|
E |---------------------------------------------------|


Main riff (x4)

e |---------------------------------------------|
B |--------------2--------------------2---------|
G |-----4-----------3--------4-----------3------|
D |--1-----2--4--------4--1-----2--4--------4---|
A |---------------------------------------------|
E |---------------------------------------------|


Bridge.

e |-----------2--------------------------------------|
B |--0--4--0-----4-----4--------------------2--------|
G |-----------------------4--------4-----------3-----|
D |-----------------4--------4--x-----2--4--------4--|
A |--------------------------------------------------|
E |--------------------------------------------------|


Main riff (x2)

e |---------------------------------------------|
B |--------------2--------------------2---------|
G |-----4-----------3--------4-----------3------|
D |--1-----2--4--------4--1-----2--4--------4---|
A |---------------------------------------------|
E |---------------------------------------------|


Pre chorus:
e |-----------2-----------------|
B |--0--4--0-----4-----4--------|
G |-----------------------4-----|
D |-----------------4--------4--|
A |-----------------------------|
E |-----------------------------|


Chorus:
(x2)                                                  E (let ring)
e |--------------------------------------------------------0-----|
B |--4--4--4-4-4--0---0-0-------------5/7----5----0--------0-----|
G |--4--4--4-4-4--1---1-1------4b-----6/8----6----1--------1-----|
D |--4--4--4-4-4--2---2-2-6---(6)-----7/9----7----2--------2-----|
A |--2--2--2-2-2--2---2-2-6---------------------------2----------|
E |---------------0---0-0-4---------------------------0----------|

- Repeat A (Chorus x4 this time).

Chorus variation at third repetition:

e |---------------------------------------------------------------|
B |--4--4--4-4-4--0---0-0-------------5/7----5----0-/-7---5----0--|
G |--4--4--4-4-4--1---1-1-----4b------6/8----6----1-/-8---6----1--|
D |--4--4--4-4-4--2---2-2-6---6-------7/9----7----2-/-9---7----2--|
A |--2--2--2-2-2--2---2-2-6---------------------------------------|
E |---------------0---0-0-4---------------------------------------|


B: (1:37)
    Palm mute
e |------------------------------------------------------------------|
B |------------------------------------------------------------------|
G |------------------------------------------------------------------|
D |--4-4-4-4-6-6-6-6-6-6-6-6-9-9-9-9-2-2-4-4-4-4-6-6-6-6-6-6-6-6-----|
A |--4-4-4-4-6-6-6-6-6-6-6-6-9-9-9-9-2-2-4-4-4-4-6-6-6-6-6-6-6-6-----|
E |--2-2-2-2-4-4-4-4-4-4-4-4-7-7-7-7-0-0-2-2-2-2-4-4-4-4-4-4-4-4-----|

e |------------------------------------------------------------------|
B |------------------------------------------------------------------|
G |------------------------------------------------------------------|
D |--9-9-9-9-9-9-9-9-2----2----4-4-4-4-7-7-7-7-6-6-6-6-2-2-4-4-4-4---|
A |--9-9-9-9-9-9-9-9-2----2----4-4-4-4-7-7-7-7-6-6-6-6-2-2-4-4-4-4---|
E |--7-7-7-7-7-7-7-7-0----0----2-2-2-2-5-5-5-5-4-4-4-4-0-0-2-2-2-2---|

e |------------------------------------------------------------------|
B |------------------------------------------------------------------|
G |------------------------------------------------------------------|
D |--6-6-6-6-6-6-6-6-9-9-9-9-9-9-9-9-2---2-4-4-4-4-6-6-6-6-6-6-6-6---|
A |--6-6-6-6-6-6-6-6-9-9-9-9-9-9-9-9-2---2-4-4-4-4-6-6-6-6-6-6-6-6---|
E |--4-4-4-4-4-4-4-4-7-7-7-7-7-7-7-7-0---0-2-2-2-2-4-4-4-4-4-4-4-4---|

e |-----------------------------------------------|
B |-----------------------------------------------|
G |-----------------------------------------------|
D |--9-9-9-9-9-9-9-9-2-2-4-4-4-4-7-7-7-7-6-6-6-6--|
A |--9-9-9-9-9-9-9-9-2-2-4-4-4-4-7-7-7-7-6-6-6-6--|
E |--7-7-7-7-7-7-7-7-0-0-2-2-2-2-5-5-5-5-4-4-4-4--|

(Repeat x6)
e |---------------------------------------------|
B |--------------2--------------------2---------|
G |-----4-----------3--------4-----------3------|
D |--1-----2--4--------4--1-----2--4--------4---|
A |---------------------------------------------|
E |---------------------------------------------|

- Chorus (x4)

C:
(Repeat x2)
e |---------------------------------------------|
B |--------------2--------------------2---------|
G |-----4-----------3--------4-----------3------|
D |--1-----2--4--------4--1-----2--4--------4---|
A |---------------------------------------------|
E |---------------------------------------------|

(Repeat x4)
e |---------------------------------------------------|
B |--------------3---------------------------3--------|
G |-----5-----------4---------------5-----------4-----|
D |--2-----3--5--------5--2------2-----3--5--------5--|
A |---------------------------------------------------|
E |---------------------------------------------------|


Pre chorus variation:

e |-----------2---------------------------|
B |--0--4--0-----4-----4---------------4--|
G |-----------------------4---------4-----|
D |-----------------4--------4--6---------|
A |----------------------------- ---------|
E |---------------------------------------|

- Chorus (x4)

- Repeat B.

END.
Добавлено: 06.12.2013
Другие материалы по этой песне:
  • Аккорды и текст

Страница создана 06.12.2013
http://primanota.ru/tera-melos/sunburn-chords.htm
Привет, Гость.
Предлагаем пройти революционный курс по гитаре.
Подарок от PrimaNota.Ru, забирай!