PrimaNota.ru - самый крупный в мире бесплатный архив песенных текстов, аккордов, табулатур и нот


Tera Melos - Party With Gina - таба, видео

Регистрация Запомнить меня
Войти через:  Facebook Google Twitter Vk Yandex Mail.ru

Tera Melos - Party With Gina - таба, видео

Печатать
Просмотров: 73
-------------------------------------------------------------------------------
                        Party With Gina - Tera Melos 
-------------------------------------------------------------------------------
Tabbed by: Evan Mclay   
Email: evanmclay@hotmail.co.uk

Tuning:EADGBE

Intro Riff (middle part tapped)
e|---------------------------------------------------------------------------|
B|---------------------------8p0---------------------------------------------|
G|-10-10-8-88---5-7--5-7p0--7------7-----------------------------------------|
D|-7--7--5-55----------------------5-----------------------------------------|
A|-8--8--6-66--3----5------6-------5-------44--------------------------------|
E|--------------------------------0-0--3p0-22--------------------------------|

Verse Riff 
e|---------------------------------------------------------------------------|
B|-----------------------6-88-66---------------------------------------------|
G|-10-10-8~---10-10-8~---7-77-77-55------------------------------------------|
D|-7--7--5~---7--7--5~-----------77------------------------------------------|
A|-8--8--6~---8--8--6~-------------------------------------------------------|
E|---------------------------------------------------------------------------|

Interlude Riff 1
e|---------------------------------------------------------------------------|
B|-----------------------------------3---------------------------------------|
G|-----5-----5---------------5-------6b--------------------------------------|
D|------------------------------1/5------------------------------------------|
A|------------------------------1/5------------------------------------------|
E|--2-2--2-2---2-2-2-2-2-2-2-------------------------------------------------|
    * *+ * * + * * * * * * * +

Riff 2
e|---------------------------|-----------------------------------------------|
B|-----------------------6/--|-----------------------------------------------|
G|--33333333333-777777777----|-----------------------------------------------|
D|--x-x-x-x-x-x-x-x-x-x-x----|-----------------------------------------------|
A|--x-x-x-x-x-x-x-x-x-x-x----|-----------------------------------------------|
E|--2-2-2-2-2-2-6-6-6-6-6----|-----------------------------------------------|
    *********************
Riff 2 Cont. 
e|---------------------------------------------------------------------------|
B|-----------------------6/--------------------------------11/---------------|
G|--33333333333-777777777----33333333333-777777777-12121212------------------|
D|--x-x-x-x-x-x-x-x-x-x-x----x-x-x-x-x-x-x-x-x-x-x-x---x---------------------|
A|--x-x-x-x-x-x-x-x-x-x-x----x-x-x-x-x-x-x-x-x-x-x-x---x---------------------|
E|--2-2-2-2-2-2-6-6-6-6-6----2-2-2-2-2-2-6-6-6-6-6-11--11--------------------|
    *********** *********    *********** ********* ********

Riff 2 Cont. 
e|---------------------------------------------------------------------------|
B|-----------------------6/--------------------------------------------------|
G|--33333333333-777777777----33333333333-777777777-12121212------------------|
D|--x-x-x-x-x-x-x-x-x-x-x----x-x-x-x-x-x-x-x-x-x-x-x---x---------------------|
A|--x-x-x-x-x-x-x-x-x-x-x----x-x-x-x-x-x-x-x-x-x-x-x---x---------------------|
E|--2-2-2-2-2-2-6-6-6-6-6----2-2-2-2-2-2-6-6-6-6-6-11--11--------------------|
    *********** *********    *********** ********* *******
Riff 3
e|---------------------------------------------------------------------------|
B|---------------------------------------------------------------------------|
G|--33333333333-22222222222-77777778555555555557333333333333333~-------------|
D|--x-x-x-x-x-x-x-x-x-x-x-x-x-x-x-x-x-x-x-x-x-x-x-x-x-x----------------------|
A|--x-x-x-x-x-x-x-x-x-x-x-x-x-x-x-x-x-x-x-x-x-x-x-x-x-x----------------------|
E|--2-2-2-2-2-2-1-1-1-1-1-1-6-6-6-6-4-4-4-4-4-4-2-2-2-2----------------------|
    *********** *********** ***************************


Riff 4
e|--------------------------------------------|------------------------------|
B|--2--2--2-------6--6---2--2--2-------6--6---|-2--2-4-2-------6---777-------|
G|---33-33-33/7777-77-77\-33-33-33/7777-77-77-|--33-3-3-33/7777-777777-------|
D|--------------------------------------------|------------------------------|
A|--------------------------------------------|------------------------------|
E|--------------------------------------------|------------------------------|

Riff 5
e|---------------------------------------------------------------------------|
B|---------------------------------------------------------------------------|
G|--33333333333-777777777--3\------------------------------------------------|
D|--x-x-x-x-x-x-x-x-x-x-x--x\------------------------------------------------|
A|--x-x-x-x-x-x-x-x-x-x-x--x\------------------------------------------------|
E|--2-2-2-2-2-2-6-6-6-6-6--2\------------------------------------------------|
    *********** *********

Riff 6 (these are just the individual chords)
e|-------------------------2-------------------------------------------------|
B|----7-----6--2--4--4--2--4--4--11--13--------------------------------------|
G|-3--7--7--7--3--3--3--3--5--5--10--12--------------------------------------|
D|-3--x--x--x-----------4-----x--x---x---------------------------------------|
A|-x--7--5--5-----------------3--x---x---------------------------------------|
E|-3--5--------------------------10--11--------------------------------------|

Riff 7 (Tapped)
e|-11---------11---------14-----------14-------------------------------------|
B|---7--13------7--13------10--16-------10--16-------------------------------|
G|---------------------------------------------------------------------------|
D|---------------------------7---7-7------7---7-7----------------------------|
A|----9---9-9----9---9-9--------------------------9\-------------------------|
E|---------------------------------------------------------------------------|

Riff 8
e|---------------------------------------------------------------------------|
B|--8-8---------6-8-6-8-10-11-13--15-15--2-4--6-8--2-4-----------------------|
G|--7-7--7-6-10-7-7-7-9-9--12-12--14-14--3-3--7-7--3-3-----------------------|
D|--5-5--7-6-10--------------------------------------------------------------|
A|--6-6--5-8-8---------------------------------------------------------------|
E|--------------------8----11------------------------------------------------|

Riff 8 Cont. 
e|-------------------6\---6\-------------------------------------------------|
B|--------------3-------------------------3----------------------------------|
G|--4----4444---3-3-----------4----4444---3----------------------------------|
D|--4-5--4444-5---4-5----5----4-5--4444-5------------------------------------|
A|--2-5--2222-5---------------2-5--2222-5------------------------------------|
E|----3-------3-----------------3-------3------------------------------------|

Riff 9 (after repeating verse)
e|--8-6----------------------------------------------------------------------|
B|------10-8-----8----8----8----8----8----8------8----8----8-----------------|
G|--------------7----7----7----7----7----7---7--7----7----7------------------|
D|-------------8----8----8----8----8----8------8----8----8-------------------|
A|------------------------------------------5-5------------------------------|
E|------------6----6----6----6----6----6-----------6----6--------------------|

Riff 9 Cont. 
e|---------------------------------------------------------------------------|
B|----8-10-11---8-10-11-----8---8---8---8------------------------------------|
G|-------------------------7---7---7---7-------------------------------------|
D|------------------------8---8---8---8--------------------------------------|
A|-----------------------7---7---7---7---------------------------------------|
E|--6---------6--------------------------------------------------------------|




Riff 10
e|--------------------10---10---10-------6-----------------------------------|
B|----6---6---6---678----8----8----------------------8-3---------------------|
G|--7---7---7---7------------------5-6-7-----456--11b--6brbrbr-3-------------|
D|-----------------------------------------8---------------------------------|
A|---------------------------------------------------------------------------|
E|----------------------------------------------0----------------------------|

Riff 10 cont. 
e|---------------------------------------------------------------------------|
B|---------------------------------------------------------------------------|
G|-2-5-7~--------------------------------------------------------------------|
D|-----7~--------------------------------------------------------------------|
A|-----5~--------------------------------------------------------------------|
E|---------------------------------------------------------------------------|

Riff 11
e|----------8---8-----------------------------8------------------------------|
B|--3---3---8---8----4-3-4-3-4-3-4-3--3---3---8---87-4-3--1------------------|
G|--3---3-----------------------------3---3-------88------2-3----------------|
D|---------------------------------------------------------------------------|
A|---------------------------------------------------------------------------|
E|----3---3---8---8--2-2-2-2-2-2-2-2----3---3---8----2-----------------------|
      *   *   *   *  
Riff 11 cont. 
e|------6-8-10----12/15--14-13-----------------------------------------------|
B|--6h8--------11---------------10--87--4-3-4-3-4-3-4-3----------------------|
G|----------------------------------88---------------------------------------|
D|---------------------------------------------------------------------------|
A|--6-----7----10--------9--8------------------------------------------------|
E|------------------------------8-------2---2---2---2------------------------|

Riff 11 cont. 
e|----------8---8------------------------------------------------------------|
B|--3---3---8---8----4-3-4-3-4-3-4-3~----------------------------------------|
G|--3---3--------------------------------------------------------------------|
D|---------------------------------------------------------------------------|
A|---------------------------------------------------------------------------|
E|----3---3---8---8--2---2---2---2-------------------------------------------|
      *   *   *   *
Riff 12
e|----------8-------------------------6--------------------------------------|
B|--3---3---8---87-3------7-------6h8--------6-------------------------------|
G|--3---3-------88-2-/5-8---7---7--------5-8---------------------------------|
D|----------------------------7----------------------------------------------|
A|--------------------------------6------------------------------------------|
E|----3---3---8--------------------------------------------------------------|

Riff 13
e|----------8---8------------------------------------------------------------|
B|--3---3---8---8------------------------------------------------------------|
G|--3---3-----------------3-------2------------------------------------------|
D|---------------------------------------------------------------------------|
A|---------------------------------------------------------------------------|
E|----3---3---8---8--6-5-2--6-5-2---6-5-2------------------------------------|

Rif 13 cont. 
e|----------8---8------------------------------------------------------------|
B|--3---3---8---8----------4-------4-----------------------------------------|
G|--3---3------------5-3-0-5-5-3-0-5-5-3-0-----------------------------------|
D|---------------------------------------------------------------------------|
A|---------------------------------------------------------------------------|
E|----3---3---8---8----------------------------------------------------------|

Riff 13 cont.
e|----------8---8------------------------------------------------------------|
B|--3---3---8---8----4-3-4-3-4-3-4-3~----------------------------------------|
G|--3---3--------------------------------------------------------------------|
D|---------------------------------------------------------------------------|
A|---------------------------------------------------------------------------|
E|----3---3---8---8--2---2---2---2-------------------------------------------|
       
Riff 14
e|------------------------------------5\---5\--------------------------------|
B|----223223-2-----3343-8-10-11-13-------------------------------------------|
G|-------------3--------9-9--12-12-------------------------------------------|
D|----------------------------------4----4-----------------------------------|
A|---------------------------------------------------------------------------|
E|--3------------6------8----11----------------------------------------------|

Riff 15
e|-------------------------------8b------------------------------------------|
B|------3---2/--4---4/--8----4/--x---10b-------------------------------------|
G|--3/--6b--3/--7b--5/--11b--5/--8b--x---------------------------------------|
D|--3/-------------------------------x---------------------------------------|
A|--1/-----------------------3/------9b--------------------------------------|
E|---------------------------------------------------------------------------|

Riff 15 (Variant 1)
e|----------------------------8b---------------------------------------------|
B|-----------------------8b--------8b----10b---------------------------------|
G|--3---6b--7---8-10-8-------------------x-----------------------------------|
D|--3------------------------------------x-----------------------------------|
A|--1------------------------------------9b----------------------------------|
E|----3---3---6--------8----8----8----8--------------------------------------|

Riff 15 (Variant 2)
e|--------------------------8b-----------------------------------------------|
B|----------------------8b------8b--10b--------------------------------------|
G|--3---6b----------8b--------------x----------------------------------------|
D|--3-------5---3-1-----------------x----------------------------------------|
A|--1-------------------------------9b---------------------------------------|
E|----3---3---6-------8---8---8---8------------------------------------------|


************************************

| /   slide up
| \   slide down
| h   hammer-on
| p   pull-off
| ~   vibrato
| +   harmonic
| x   Mute note
| b   Bend
| pb  Pre-bend
| br  Bend release
| pbr Pre-bend release
| brb Bend release bend

************************************
Добавлено: 25.11.2013
Другие материалы по этой песне:
  • Аккорды и текст

Страница создана 25.11.2013
http://primanota.ru/tera-melos/party-with-gina-chords.htm
Привет, Гость.
Предлагаем пройти революционный курс по гитаре.
Подарок от PrimaNota.Ru, забирай!