PrimaNota.ru - самый крупный в мире бесплатный архив песенных текстов, аккордов, табулатур и нот


Tera Melos - Melody 9 - бас-таба, видео

Регистрация Запомнить меня
Войти через:  Facebook Google Twitter Vk Yandex Mail.ru

Tera Melos - Melody 9 - бас-таба, видео

Печатать
Просмотров: 108
Pretty easy song.
Can be played on guitar (I tabbed it on guitar).
Should be 100% correct (or VERY close to it).
Comment for any corrections.
Enjoy.

Opens like so:
G|-----------------------------2--------------------------------------------------------|
D|----------4------4-----2--4---------------------4------4-----2--4-------2-4-2---------|
A|------5-------------5-----------3--2--------5-------------5---------2-5-------5-2-----|
E|--3-----------3---3-------------------3/5-----3-----3---3---------5---------------5---|

Then repeat this for the rest of the song (it's only slightly different):
G|-----------------------------2-------------------------------------2-------------|
D|----------4------4-----2--4---------------------4------4-----2--4----------------|
A|------5-------------5-----------3--2--------5-------------5-----------3--2-------|
E|--3-----------3---3-------------------3/5-----3-----3---3-------------------3/5--|

G|-------------------------2-------------------------------------------------------|
D|------4------4-----2--4---------------------4------4-----2--4-------2-4-2--------|
A|--5-------------5-----------3--2--------5-------------5---------2-5-------5-2----|
E|----------3---3-------------------3/5-----3-----3---3---------5---------------5--|
Добавлено: 08.10.2013
Другие материалы по этой песне:

Страница создана 04.06.2013
http://primanota.ru/tera-melos/melody-9-chords.htm
Привет, Гость.
Предлагаем пройти революционный курс по гитаре.
Подарок от PrimaNota.Ru, забирай!