PrimaNota.ru - самый крупный в мире бесплатный архив песенных текстов, аккордов, табулатур и нот


Tera Melos - Aped - таба, видео

Регистрация Запомнить меня
Войти через:  Facebook Google Twitter Vk Yandex Mail.ru

Tera Melos - Aped - таба, видео

Печатать
Просмотров: 147
Уроки эстрадного вокала в Санкт-Петербурге
Aped by Tera Melos



     TP  TP  TP                                   
     E   E   Q        Q    Q.      E.  E  Q    S  
E||---------------|------------------------------|
B||--9--10--12----|---9----7------/9---9--7------|
G||---------------|---------------/9---9--8------|
D||---------------|--11----9---------------------|
A||---------------|------------------------------|
E||---------------|----------------------------0-|


  E.   Q     Q    E   Q    E   S     E.   E  E  E.  S S E  S  S E   E   
------12----11-------------------|-------------------------------------|
------12----12-------------------|-------------------------------------|
---------------------------------|------------------------------9------|
---------------------------------|-------------------------------------|
------------------9--11----9--11-|---L---11--9--7---9-7------------11--|
--L------------------------------|----------------------9--7S-9--------|


  E  Q     Q     Q    E   Q       E   Q     E  E  E.  S S E  S  S S  
----------12----11-------------|------------------------------------|
----------12----12-------------|------------------------------------|
-------------------------------|----------------------------------9-|
-------------------------------|------------------------------------|
----------------------9--11----|--9--11----11--9--7---9-7-----------|
-----0-------------------------|--------------------------9--7S-9---|


  S  E  E   E.  Q     Q     Q       E   Q    E   Q     E  E  E.  S  
---------------------12----11----|---------------------------------|
-----------/9---7----12----12----|---------------------------------|
--L--------/9---8----------------|---------------------------------|
---------------------------------|---------------------------------|
----11---------------------------|--9--11----9--11----11--9--7---9-|
---------------------------------|---------------------------------|


  S E  S  S E   E  E  Q     Q     S    E.  E   Q    E   Q     E  E  S  
---------------------------12----11-|--L------------------------------|
---------------------------12----12-|--L------------------------------|
------------9-----------------------|---------------------------------|
------------------------------------|---------------------------------|
--7------------11-------------------|------9--11----9--11----11--9--7-|
----9--7S-9-----------0-------------|---------------------------------|


                                       TP  TP  TP                             
  E  S S E  S  S E   E  E   E.  E.     E   E   Q       W                Q     
------------------------------------|---------------|--0----------------0----|
---------------------------/9---7---|--9--10--12----|--4----------------4----|
-----------------9---------/9---8---|---------------|-------------------4----|
------------------------------------|---------------|------------------------|
--L--9-7------------11--------------|---------------|------------------------|
---------9--7S-9--------------------|---------------|------------------------|


  H.           H           H         Q    Q    E  E   
--L------------0--------|--L----------------------0--|
--L------------4--------|--L--------/7----5----4-----|
--L------------4--------|--L-------------------------|
---------------6--------|--L-------------------------|
------------------------|----------------------------|
------------------------|----------------------------|


  E  E  E  E  Q    H           H        H.              Q    W                 
-----0-----0-------0--------|--L--------0------------|--L----0----------------|
--4-----4-----0----4--------|--L--------4------------|--L----4----------------|
----------------------------|-----------4------------|--L----4----------------|
----------------------------|------------------------|-------6----------------|
----------------------------|------------------------|------------------------|
----------------------------|------------------------|------------------------|


   Q    Q    E  E  E  E  E  E     Q    W                 
----------------0-----0-----0--|-------0----------------|
--/7----5----4-----4-----4-----|--0----4----------------|
-------------------------------|------------------------|
-------------------------------|------------------------|
-------------------------------|------------------------|
-------------------------------|------------------------|


  W                Q       H.            Q    Q     
--0----------------0----|--L-----------------------|
--4----------------4----|--L------------/7----5----|
--4----------------4----|--L-----------------------|
-------------------6----|--L-----------------------|
------------------------|--------------------------|
------------------------|--------------------------|


  E  E  E  E  E  E  Q    Q       H.           H         
-----0-----0-----0-------0----|--L------------0--------|
--4-----4-----4-----0----4----|--L------------4--------|
------------------------------|---------------4--------|
------------------------------|------------------------|
------------------------------|------------------------|
------------------------------|------------------------|


  H        H.              Q     Q    Q    E  E  E  E   
--L--------0------------|--L---------------4--7--4--7--|
--L--------4------------|--L----/7----5----------------|
--L--------4------------|--L---------------------------|
-----------6------------|--L---------------------------|
------------------------|------------------------------|
------------------------|------------------------------|


  E  E  Q    Q    Q    Q        E   E   E   E   E   E   Q      Q     
--4--7----------------------|---------------------------------------|
--------5----4----7---------|---9---9---9---9---9---9---9\----/7----|
----------------------------|--13--13--13--13--13--13--13\----------|
----------------------------|---------------------------------------|
----------------------------|---------------------------------------|
-----------------------0----|---------------------------------------|


                                                 |---3--|  |---3--|   
  Q    E  E  E  E  E  E  Q       Q    Q    Q     E  E   E  E  E   E   
-------4--7--4--7--4--7-------|-----------------12--0----------------|
--5----------------------5----|--4----7----------------12--0--0------|
------------------------------|----------------------------------11--|
------------------------------|--------------------------------------|
------------------------------|--------------------------------------|
------------------------------|------------0-------------------------|


  Q      Q    Q    E  E  E  E     E  E  Q    Q    Q    Q     
-------------------4--7--4--7--|--4--7----------------------|
--------/7----5----------------|--------5----4----7---------|
-------------------------------|----------------------------|
-------------------------------|----------------------------|
-------------------------------|----------------------------|
--7\---------------------------|-----------------------0----|


                                             TP  TP  TP    
   E   E   E   E   E   E   E   E   E   E     E   E   Q     
------------------------------------------|---------------|
---9---9---9---9---9---9---9---9---9---9--|--9--10--12----|
--13--13--13--13--13--13--13--13--13--13--|---------------|
------------------------------------------|---------------|
------------------------------------------|---------------|
------------------------------------------|---------------|


   Q    Q.      E.  E  Q    S    E.   Q     Q    E   Q    E   S  
------------------------------|------12----11-------------------|
---9----7------/9---9--7------|------12----12-------------------|
---------------/9---9--8------|---------------------------------|
--11----9---------------------|---------------------------------|
------------------------------|------------------9--11----9--11-|
----------------------------0-|--L------------------------------|


   E.   E  E  E.  S S E  S  S E   E     E  Q     Q     Q    E   Q     
-------------------------------------|----------12----11-------------|
-------------------------------------|----------12----12-------------|
------------------------------9------|-------------------------------|
-------------------------------------|-------------------------------|
---L---11--9--7---9-7------------11--|----------------------9--11----|
----------------------9--7S-9--------|-----0-------------------------|


  E   Q     E  E  E.  S S E  S  S S    S  E  E   E.  Q     Q     Q     
------------------------------------|---------------------12----12----|
------------------------------------|-----------/9---7----12----14----|
----------------------------------9-|--L--------/9---8----------------|
------------------------------------|---------------------------------|
--9--11----11--9--7---9-7-----------|----11---------------------------|
--------------------------9--7S-9---|---------------------------------|


  E  Q.      Q.      Q.         Q    Q.     Q    E   Q     
--L--------------------------|----------------------------|
--L--0-------0-------0-------|-------0--------------------|
-----9------11------13\------|--2-----------9----9--11----|
-----------------------------|----------------------------|
-----------------------------|----------------------------|
-----------------------------|----------------------------|


   Q    Q     Q     Q.     E     Q     Q.      Q.      Q     
-------------12----12---------|-----------------------------|
-------------12----14------0--|--------0-------0------------|
--13-----------------------9--|--L----11------13\------6----|
------------------------------|-----------------------------|
------------------------------|-----------------------------|
--------0---------------------|-----------------------------|


  Q.     Q    E   Q     Q       Q     Q     Q.     Q.      
-----------------------------|-------12----12-------------|
--5--------------------------|-------12----14-------------|
---------9----9--11----13----|---------------------9------|
-----------------------------|----------------------------|
-----------------------------|----------------------------|
-----------------------------|--0-------------------------|


   Q.      Q.      Q    Q       E  Q    E   Q     Q    Q     
-----------------------------|------------------------------|
------------------------5----|--L---------------------------|
--11------13\------6---------|-----9----9--11----13---------|
-----------------------------|------------------------------|
-----------------------------|------------------------------|
-----------------------------|-------------------------0----|


   Q     Q.      Q.      Q        E   Q.     Q    Q.     E   
--12----11-------0------------|-----------------------------|
--12----12------14------14----|---L---0-----------5------5--|
------------------------13----|---L--11------6--------------|
------------------------------|-----------------------------|
------------------------------|-----------------------------|
------------------------------|-----------------------------|


  E  E  Q    Q    H           H        H.              Q    W                 
------------------0--------|--L--------0------------|--L----0----------------|
--L--5--7----5----4--------|--L--------4------------|--L----4----------------|
---------------------------|-----------4------------|--L----4----------------|
---------------------------|------------------------|-------6----------------|
---------------------------|------------------------|------------------------|
---------------------------|------------------------|------------------------|


   Q    Q    E  E  E  E  E  E     Q    W                 
----------------0-----0-----0--|-------0----------------|
--/7----5----4-----4-----4-----|--0----4----------------|
-------------------------------|------------------------|
-------------------------------|------------------------|
-------------------------------|------------------------|
-------------------------------|------------------------|


  W                Q       H.            Q    Q     
--0----------------0----|--L-----------------------|
--4----------------4----|--L------------/7----5----|
--4----------------4----|--L-----------------------|
-------------------6----|--L-----------------------|
------------------------|--------------------------|
------------------------|--------------------------|


  E  E  E  E  E  E  Q    Q       H.           H         
-------------------------0----|--L------------0--------|
-----1-----1-----1-------4----|--L------------4--------|
--4-----4-----4-----2---------|---------------4--------|
------------------------------|------------------------|
------------------------------|------------------------|
------------------------------|------------------------|


  H        H.              Q     Q    Q    E  E  E  E   
--L--------0------------|--L------------------0-----0--|
--L--------4------------|--L----/7----5----4-----4-----|
--L--------4------------|--L---------------------------|
-----------6------------|--L---------------------------|
------------------------|------------------------------|
------------------------|------------------------------|


  E  E  Q    H.              Q    W                   W                 Q     
-----0-------0------------|--L----0----------------|--0----------------------|
--4-----0----4------------|--L----4----------------|--4----------------/7----|
--------------------------|-------4----------------|--4----------------------|
--------------------------|------------------------|--6----------------------|
--------------------------|------------------------|-------------------------|
--------------------------|------------------------|-------------------------|


  Q    E  E  E  E  E  E  Q       Q    Q    Q     E   E   E   E   
-------4--7--4--7--4--7-------|---------------------------------|
--5----------------------0----|--4----7----------9---9---9---9--|
------------------------------|-----------------13--13--13--13--|
------------------------------|---------------------------------|
------------------------------|---------------------------------|
------------------------------|------------0--------------------|


   E   E   Q      Q    Q    E  E     E  E  E  E  Q    Q    Q     
----------------------------4--7--|--4--7--4--7-----------------|
---9---9---9\----/7----5----------|--------------5----4----7----|
--13--13--13\---------------------|-----------------------------|
----------------------------------|-----------------------------|
----------------------------------|-----------------------------|
----------------------------------|-----------------------------|


  Q     E   E   E   E   E   E   Q         Q    Q    E  E  E  E  E  E   
-------16--16--16--16--16--16--16\----|-------------4--7--4--7--4--7--|
-------21--21--21--21--21--21--21\----|--/7----5----------------------|
--------------------------------------|-------------------------------|
--------------------------------------|-------------------------------|
--------------------------------------|-------------------------------|
--0-----------------------------------|-------------------------------|


  Q    Q    Q    Q    E  E     E  E  E  E  Q     Q    Q     
----------------------------|------------------------------|
--5----4----7---------------|-------------------/7----5----|
----------------------------|------------------------------|
----------------------------|------------------------------|
----------------------------|------------------------------|
-----------------0----0--0--|--0--0--0--0--0---------------|


                                            |---3--|  |---3--|  |--3--|   
  E  E  E  E  E  E  Q    Q       Q    Q     E  E   E  E  E   E  E  E  E   
--4--7--4--7--4--7------------|------------12--0-------------------------|
--------------------5----4----|--7----------------12--0--0---------------|
------------------------------|-----------------------------11-----4--5--|
------------------------------|------------------------------------------|
------------------------------|---------------------------------3--------|
------------------------------|-------0----------------------------------|


  |--3--|  3  3     |----3----|        3  
  E  E  E  E  E  E  Q    Q    Q    E.  T  
--------------------0----0----0----------|
-----0--4--5--7--0--4----5----7----------|
-----------------------------------------|
-----------------------------------------|
-----------------------------------------|
--5--------------------------------0---L-|


      |---3--|  |---3--|  |--3--|  |--3--|  |-3|  
  E   E  E   E  E  E   E  E  E  E  E  E  E  E  S  
-----12--0---------------------------------------|
------------12--0--0------------------0--4--5--7-|
----------------------11-----4--5----------------|
-------------------------------------------------|
--------------------------3----------------------|
--L--------------------------------5-------------|


  3    |----3----|          |---3--|  3   
  S E  Q    Q    Q    Q     E  E   E  E   
-------0----0----0---------12--0---------|
--L-0--4----5----7----------------12--0--|
-----------------------------------------|
-----------------------------------------|
-----------------------------------------|
----------------------0------------------|


  |---3--|  |--3--|  |--3--|  3     3    3    
  E   E  E  E  E  E  E  E  E  E  E  Q    E.   
------------------------------------0----0---|
--0------------------0--4--5--7--0--4----5---|
-----11-----4--5-----------------------------|
---------------------------------------------|
---------3-----------------------------------|
------------------5--------------------------|


  3 3          |---3--|  |-3|  |--3--|  3  3   
  S Q    Q     E  E   E  E  S  E  E  E  E  E   
--L-0---------12--0---------------------------|
--L-7----------------12--0--0-----------------|
------------------------------11-----4--5-----|
----------------------------------------------|
----------------------------------3-----------|
---------0---------------------------------5--|


  |--3--|  3     |----3----|          3  
  E  E  E  E  E  Q    Q    Q    Q     S  
-----------------0----0----0---------12-|
--0--4--5--7--0--4----5----7------------|
----------------------------------------|
----------------------------------------|
----------------------------------------|
--------------------------------0-------|


  |3|   |--3--|   |--3--|  |--3--|  |--3--|      
  S E   E  E  E   E  E  E  E  E  E  E  E  E  E   
--L-0-------------------------------------------|
-------12--0--0------------------0--4--5--7--0--|
-----------------11-----4--5--------------------|
------------------------------------------------|
---------------------3--------------------------|
------------------------------5-----------------|


  |----3----|          |---3--|  |---3--|   
  Q    Q    Q    Q     E  E   E  E  E   E   
--0----0----0---------12--0----------------|
--4----5----7----------------12--0--0------|
---------------------------------------11--|
-------------------------------------------|
-------------------------------------------|
-----------------0-------------------------|


  |--3--|  |--3--|  3  3     3    3    3    
  E  E  E  E  E  E  E  E  E  Q    Q    E.   
-----------------------------0----0----0---|
--------------0--4--5--7--0--4----5----7---|
-----4--5----------------------------------|
-------------------------------------------|
--3----------------------------------------|
-----------5-------------------------------|


  3 3          |---3--|  |---3--|  |--3--|  3  
  S Q    Q     E  E   E  E  E   E  E  E  E  S  
--L-0---------12--0---------------------------|
--L-4----------------12--0--0-----------------|
-------------------------------11-----4--5----|
----------------------------------------------|
-----------------------------------3----------|
---------0----------------------------------5-|


  |3|  |--3--|     |----3----|    |--3-|   
  S E  E  E  E  E  Q    Q    Q    Q    E   
-------------------0----0----0----0----0--|
----0--4--5--7--0--4----5----7----8----9--|
-------------------4----6----8----9----9--|
------------------------------------------|
------------------------------------------|
--L---------------------------------------|


  |---3--|   |--3--|   |--3--|  |--3--|  |--3--|   
  E   E  E   E  E  E   E  E  E  E  E  E  E  E  E   
--L--12--0----------------------------------------|
--L---------12--0--0------------------0--4--5--7--|
--L-------------------11-----4--5-----------------|
--------------------------------------------------|
--------------------------3-----------------------|
-----------------------------------5--------------|


     |----3----|    3               |----3----|      
  E  Q    Q    Q    Q    E.  E.     Q    Q    Q      
-----0----0----0----0------------|-----------------||
--0--4----5----7----8--------7---|-----------------||
-------------------------8-------|--2----3----4----||
---------------------------------|-----------------||
---------------------------------|-----------------||
---------------------------------|-----------------||




Duration Legend
---------------
W - whole
H - half
Q - quarter
E - 8th
S - 16th
T - 32nd
X - 64th
. - note dotted
|-n-|  - n-tuplets


Tablature Legend
----------------
L - tied note
x - dead note
g - grace note
(n) - ghost note
> - accentuded note
NH - natural harmonic
AH - artificial harmonic
TH - tapped harmonic
SH - semi harmonic
PH - pitch harmonic
h - hammer on
p - pull off
b - bend
br - bendRelease
pb - preBend
pbr - preBendRelease
brb - bendReleaseBend
\n/ - tremolo bar dip
\n - tremolo bar dive
-/n - tremolo bar Release up
/n\ - tremolo bar inverted dip
/n - tremolo bar return
-\n - tremolo bar Release down
S - shift slide
s - legato slide
/ -  slide into from below or out of upwards
\ -  slide into from above or out of downwards
~ - vibrato
W - wide vibrato
tr - trill
TP - tremolo picking
T - tapping
S - slap
P - pop
< - fade in
^ - brush up
v - brush down
Добавлено: 01.07.2012
Другие материалы по этой песне:

Страница создана 01.07.2012
http://primanota.ru/tera-melos/aped-chords.htm
Привет, Гость.
Предлагаем пройти революционный курс по гитаре.
Подарок от PrimaNota.Ru, забирай!