PrimaNota.ru - самый крупный в мире бесплатный архив песенных текстов, аккордов, табулатур и нот


Tenterhook - Chemicals - таба, видео

Регистрация Запомнить меня
Войти через:  Facebook Google Twitter Vk Yandex Mail.ru

Tenterhook - Chemicals - таба, видео

Печатать
Просмотров: 68
-------------------------------------------------------------------------------
                             CHEMICALS - TENTERHOOK
-------------------------------------------------------------------------------
Tabbed by: BALLYROCKS
E-mail: paulkitt12@gmail.com


Tuning: STANDARD

Capo : 5th

Time: 0:00 - 0:10


e|---------------3p2p0----------------------------------------------------------|
B|---------------0-----3-5p3-0-3p0-3p0-3----------------------------------------|
G|---------------0----------0-0-------0--2--2h4p2p0-----------------------------|
D|--------------------------------------0---------------------------------------|
A|-----------------------3------------------------------------------------------|
E|-----------0--------------------3------2--------------------------------------|


*********************************************************************************

| h   hammer-on
| p   pull-off

*********************************************************************************


BVIIBOM
Добавлено: 25.12.2015
Другие материалы по этой песне:
  • Аккорды и текст

Страница создана 25.12.2015
http://primanota.ru/tenterhook/chemicals-chords.htm
Привет, Гость.
Предлагаем пройти революционный курс по гитаре.
Подарок от PrimaNota.Ru, забирай!