PrimaNota.ru - самый крупный в мире бесплатный архив песенных текстов, аккордов, табулатур и нот


Tennis - Origins - таба, видео

Регистрация Запомнить меня
Войти через:  Facebook Google Twitter Vk Yandex Mail.ru

Tennis - Origins - таба, видео

Печатать
Просмотров: 77
-------------------------------------------------------------------------------
                             Origins - Tennis
-------------------------------------------------------------------------------
Tabbed by: emily4011
E-mail: emilyrhiestand@gmail.com


Tuning: Standard

chords throughout: C#  G# 

Guitar 1 (Part A) you can totally ignore the D string in this and it still sounds fine.
im not even 100% sure
its being played but it looks like it is in live performances

e|------------------------------------------------------------------11--------------------|
B|-----9-11-9----9-11-9----9-11-9---9-11-9---13---13---13----11------------13---11---11---|
G|----------------------------------------------------------------------------------------|
D|--11--------11--------11--------11-------13---13---13---13----13-----13----13---13------|
A|----------------------------------------------------------------------------------------|
E|----------------------------------------------------------------------------------------|

Guitar 2 (Part B)starts at around 0:15. im pretty sure this is played by a keyboard but it
sounds good on guitar too

e|---------------------------------------------------------------------------|
B|---------------------------------------------------------------------------|
G|---------------------------------------------------------------------------|
D|-1-3---------------------1-3----------------------1-3--1-3-1---------------|
A|-------1-3----------1-3--------1-3----------1-3----------------------------|
E|--------------1-4--------------------1-4-----------------------------------|

Guitar 1 (Part C: solo)

e|---------------------------------------------------------------------------|
B|------------------------------4---2----------------------------------------|
G|-------------------------3h5----3------------------------------------------|
D|---------------------------------------------------------------------------|
A|---------------------------------------------------------------------------|
E|--1/4/6/8--8-6-8--8-6------------------------------------------------------|

e|---------------------------------------------------------------------------|
B|-----------------9--9--9--9---8-8-8----------------------------------------|
G|-----------------10-10-10-10--8-8-8----------------------------------------|
D|---------------------------------------------------------------------------|
A|---------------------------------------------------------------------------|
E|-1/4/6/8--8-6-8------------------------------------------------------------|

e|---------------------------------------------------------------------------|
B|---------------------------------------4-4----9--9--9---8-8-8--------------|
G|-----5--8-5----------5--8h10/12-10-8-5-5-5----10-10-10--8-8-8--------------|
D|---6--6-----6-----6--------------------------------------------------------|
A|-8------------8------------------------------------------------------------|
E|---------------------------------------------------------------------------|



Part D(after the solo) is really hard to hear so i'll keep working on that and try to add it later


************************************

| /   slide up
| \   slide down
| h   hammer-on
| p   pull-off
| ~   vibrato
| +   harmonic
| x   Mute note
| b   Bend
| pb  Pre-bend
| br  Bend release
| pbr Pre-bend release
| brb Bend release bend

************************************
Добавлено: 24.10.2014
Другие материалы по этой песне:
  • Аккорды и текст

Страница создана 24.10.2014
http://primanota.ru/tennis/origins-chords.htm
Привет, Гость.
Предлагаем пройти революционный курс по гитаре.
Подарок от PrimaNota.Ru, забирай!