PrimaNota.ru - самый крупный в мире бесплатный архив песенных текстов, аккордов, табулатур и нот


Tenmon - Omoide Wa Tooku No Hibi Distant Everyday Memories - таба, видео

Регистрация Запомнить меня
Войти через:  Facebook Google Twitter Vk Yandex Mail.ru

Tenmon - Omoide Wa Tooku No Hibi Distant Everyday Memories - таба, видео

Печатать
Просмотров: 112
-------------------------------------------------------------------------------
                             Omoide wa Tooku no Hibi - TENMON
-------------------------------------------------------------------------------
Tabbed by: Skrypt3d
E-mail:

Tuning: Standard

e|-------7---5---2---6-8-10---12-10-10-----------------------------5---------|
B|-----1-7---7---3--------7-7-10-------3-0-10-8-7---5-10-3---5-7---5-3-3-----|
G|---3---7---6---4-------------------------7--------6----2-----4-------2-----|
D|---------------------------------------------------------------------4-----|
A|---------------------------------------------------------------------------|
E|---------------------------------------------------------------------------|

e|---6-8-7---5---2-----6-8-7---12-10-10--------------------------------------|
B|-------7---7---3---0---------10-------3-0-10--8-7-5-10-3-----5-7---5-------|
G|-------7-7-6-6-4---0-----7-7--------------7-------6----2---7---------7-7---|
D|-----------------------------------------------------------------------4---|
A|---------------------------------------------------------------------------|
E|---------------------------------------------------------------------------|

e|---5----------5-3-----------5---------5-3-------3--------------------------------------------|
B|---5------5-----5-----------5------5----5-------0------0-2-3-------10----8-------------5-----|
G|-----------------------4-----------------------------------0--------9------9-------5---------|
D|---------------------------------------------------------------------------------------7-----|
A|---------------------------------------------------------------------------------------------|
E|---------------------------------------------------------------------------------------------|

e|---9-11-12---7---9---11-12---14-12-12---7-5-4---2-7-0----2-4---0-0------------|
B|---------9---7---9------9----12----10-------5---4---2------2------------------|
G|-----------------9-----------------------------------------------1------------|
D|------------------------------------------------------------------------------|
A|------------------------------------------------------------------------------|
E|------------------------------------------------------------------------------|

e|-------0-------------0---2-0-0---------------------------------------------|
B|---2-4-2-------2---4-----0--------0-----------0----------------------------|
G|-------1---4---1-----1-1-----2------2-1------------------------------------|
D|-----------4---2----------------------------4---2-----2-4-6----4-2-2-------|
A|-----------6----------------------------------------------4----------------|
E|---------------------------------------------------------------------------|

e|---12-14-16------14-12-12----------------|
B|---------14------------9-----------------|
G|-----------------------------------------|
D|-----------------------------------------|
A|-----------------------------------------|
E|-----------------------------------------|

e|---5-7-9-----7-5-5-----------------------|
B|-------6----------6----------------------|
G|------------------6----------------------|
D|-----------------------------------------|
A|-----------------------------------------|
E|-----------------------------------------|

e|-------------------0-5-9-12-------4-9-12-15--------17-21-------------------|
B|----------5-----------------------5-------------17-------------------------|
G|------4-6--------2--------------2------------------------------------------|
D|----7----------------------------------------------------------------------|
A|---------------------------------------------------------------------------|
E|---------------------------------------------------------------------------|


************************************

| /   slide up
| \   slide down
| h   hammer-on
| p   pull-off
| ~   vibrato
| +   harmonic
| x   Mute note
| b   Bend
| pb  Pre-bend
| br  Bend release
| pbr Pre-bend release
| brb Bend release bend

************************************
Добавлено: 18.04.2016
Другие материалы по этой песне:
  • Аккорды и текст

Страница создана 18.04.2016
http://primanota.ru/tenmon/omoide-wa-tooku-no-hibi-distant-everyday-memories-chords.htm
Привет, Гость.
Предлагаем пройти революционный курс по гитаре.
Подарок от PrimaNota.Ru, забирай!