PrimaNota.ru - самый крупный в мире бесплатный архив песенных текстов, аккордов, табулатур и нот


Tenacious D - Metal - текст песни, таба, бас-таба, видео

Регистрация Запомнить меня
Войти через:  Facebook Google Twitter Vk Yandex Mail.ru

Tenacious D - Metal - текст песни, таба, бас-таба, видео

Печатать
Просмотров: 1275
Уроки эстрадного вокала в Санкт-Петербурге
The Metal - Tenacious D

Intro & Strophe

 E ||-------------------------------|---------------------||
 B ||-------------------------------|---------------------||
 G ||-------------------------------|---------------------||
 D ||-------------------------------|---------------------||
 A ||-------------3-2-0-2-0-2-3-2-0-|-------------3-2-0-2-||
 E ||-0-0-0-3-0-0-------------------|-0-0-0-3-0-0---------||

 E ||-------------------------------|-----------------------------||
 B ||-------------------------------|-----------------------------||
 G ||-------------------------------|-----0-----------------------||
 D ||-------------------------------|-------3-2-3-2-0-2-0-2-3-2-0-||
 A ||-------------3-2-0-2-0-2-3-2-0-|---3-------------------------||
 E ||-0-0-0-3-0-0-------------------|-1---------------------------||


2nd Part

 E ||---------------|---------------||
 B ||---------------|---------------||
 G ||---------------|---------------||
 D ||-2-2-2-5-2-2-2-|-2-2-2-5-2-2-2-||
 A ||-2-2-2-5-2-2-2-|-2-2-2-5-2-2-2-||
 E ||-0-0-0-3-0-0-0-|-0-0-0-3-0-0-0-||

 E ||-------------|--------------------||
 B ||-------------|--------------------||
 G ||-9-7-9-7-9-10|-9-7-9-7-9-12-11-10-||
 D ||-9-7-9-7-9-10|-9-7-9-7-9-12-11-10-||
 A ||-7-5-7-5-7-8-|-7-5-7-5-7-10-9--8--||
 E ||-------------|--------------------||

For the rest of the song, you have to tune down your guitar to D A D G H E.
I'm sorry, that the rest isn't in this tab.

Have a nice Day


Greetings from 
Tenacious T


http://www.msgnews.net



Добавлено: 31.03.2012
Другие материалы по этой песне:

Страница создана 26.02.2012
http://primanota.ru/tenacious-d/metal-chords.htm
Привет, Гость.
Предлагаем пройти революционный курс по гитаре.
Подарок от PrimaNota.Ru, забирай!