PrimaNota.ru - самый крупный в мире бесплатный архив песенных текстов, аккордов, табулатур и нот


Tenacious D - Kielbasa Sausage - таба, видео

Регистрация Запомнить меня
Войти через:  Facebook Google Twitter Vk Yandex Mail.ru

Tenacious D - Kielbasa Sausage - таба, видео

Печатать
Просмотров: 80
Kielbasa Sausage by Tenacious D

------------------
Intro/verse:


I use ^ to indicate a slight bend up.


e|-----------------------------------------
B|----------------1----1--1----------------
G|-----3^-0-3^-0--0h2--0--0---------0------
D|-----0--0-0--0--3----3--0h2p0--0h2-------
A|------------------------3-----3----------
E|-3-3-------------------------------------


e|---------------------------
B|---------------1---1--1----
G|---------------0h2-0--0----
D|---------------3---3--0h2--
A|--2-2h3-2-2-----------3----
E|-3-------5-3-1-------------


Get it on part

E-------------------------------------------
B--10-10-10-10-10-10-10-10-10-10-10-9-9-8-7-
G--9--9--9--9--9--9--9--9--9--9--9--8-8-7-6-
D-------------------------------------------
A-------------------------------------------
E-------------------------------------------

There are lots of ways to change the feel, like not playing the high notes 
on the B string, not playing the open D when you play those bends
on the Bb, etc.
     
Добавлено: 09.09.2013
Другие материалы по этой песне:

Страница создана 28.03.2012
http://primanota.ru/tenacious-d/kielbasa-sausage-chords.htm
Привет, Гость.
Предлагаем пройти революционный курс по гитаре.
Подарок от PrimaNota.Ru, забирай!