PrimaNota.ru - самый крупный в мире бесплатный архив песенных текстов, аккордов, табулатур и нот


Ten Years After - Skoobly - Oobly - Doobob - таба, видео

Регистрация Запомнить меня
Войти через:  Facebook Google Twitter Vk Yandex Mail.ru

Ten Years After - Skoobly - Oobly - Doobob - таба, видео

Печатать
Просмотров: 93
Уроки эстрадного вокала в Санкт-Петербурге
Ten Years After - Skoobly-Oobly-Doobob

|---------------------------------------------------------------|
|-------------------------------------------------------------8-|
|-9-9--9-9-9--9p7---7-------9-9--9-9-9--9p7---7-----------7-9---|
|-----------------9---9-7-------------------9---9-7---7/9-------|
|---------------------------------------------------------------|
|---------------------------------------------------------------|

|---------------------------------------------------------------|
|---------8--11p10p8---8---------10b--8h10p8----------8---------|
|-----7-9------------9---9p7-9---------------9--9p7h9-----7-----|
|-7/9------------------------------------------------------9\7p5|
|---------------------------------------------------------------|
|---------------------------------------------------------------|

|---------------------------------------------------------------|
|-------------------------------8---10---8----10b-8h10p8-------7|
|--------------------------7-9----9----9---9-------------9-7h9--|
|-7p5-------5-7p5-7p5--7/9--------------------------------------|
|-----7p5-7-----------------------------------------------------|
|---------------------------------------------------------------|

|---------------------------------------------------------------|
|-------------------------------------------------8----10---8-10|
|-9-7-----------------------------------------7-9---9-----9-----|
|-----9-8p7/5--7-5-------5----------------7/9-------------------|
|------------------7-5h7----7-5---------------------------------|
|-------------------------------7-5-3-0-------------------------|

|---------------------------------------------------------------|
|---------8--10-8-------8------8-10-8---11-8---10-8---11-8------|
|-----7-9---------9-7h9----7/9--------9------9------9------9----|
|-7/9-----------------------------------------------------------|
|---------------------------------------------------------------|
|---------------------------------------------------------------|

|---------------------------------------------------------------|
|-10-8---11-8---10-8---11-8---10-8--------8--10---8-10-8--------|
|------9------9------9------9------9--7h9-------9--------9------|
|---------------------------------------------------------------|
|---------------------------------------------------------------|
|---------------------------------------------------------------|

|---------------------------------------------------------------|
|---------8-9-10-11h12-11-10-8---10---8-------8--11p10p8-------8|
|---7-8-9----------------------9----9---9-7-9------------9-7h9--|
|-9-------------------------------------------------------------|
|---------------------------------------------------------------|
|---------------------------------------------------------------|

|---------------------------------------------------------------|
|-11p8-10p8---8-11p8-10p8---8-11p8-10p8---10-8---11p8-10p8---8--|
|-----------9-------------9-------------9------------------9----|
|---------------------------------------------------------------|
|---------------------------------------------------------------|
|---------------------------------------------------------------|

|---------------------------------------------------------------|
|-11p8-10p8---8-11p8-10p8---8-------------8----------8----------|
|-----------9-------------9---9-------7-9--------7-9---9-7-9----|
|---------------------------------7/9--------7/9----------------|
|---------------------------------------------------------------|
|---------------------------------------------------------------|

|---------------------------------------------------------------|
|---------8----------8--------------8---10---8-10-8-------------|
|-----7-9--------7-9---9-------7-9----9----9--------9-7---------|
|-7/9--------7/9-----------7/9--------------------------9-8-7-5-|
|---------------------------------------------------------------|
|---------------------------------------------------------------|

|---------------------------------------------------------------|
|---------------------8-10-10p8-----------8-10b--8-10-8---------|
|---------------7-7h9-----------9-9---7/9---------------9-9-----|
|-7-5---5-7-8-9-------------------------------------------------|
|-----7---------------------------------------------------------|
|---------------------------------------------------------------|

|---------------------------------------------------------------|
|-----8-10b--8-10-8---10r-10r-10r-10r-8-10-8-------8------------|
|-7/9---------------9------------------------9-7h9----9-7-------|
|---------------------------------------------------------9-8-7-|
|---------------------------------------------------------------|
|---------------------------------------------------------------|

|---------------------------------------------------------------|
|-----------------8---------8--------------8--------------------|
|-------------7-9-------7-9---9-9------7-9----9-7---------------|
|-5-------7/9-------7/9------------7/9------------9-8-7-5-------|
|---7-7---------------------------------------------------7-7---|
|---------------------------------------------------------------|

|---------------------------------------------------------------|
|------------------------------8--------------------------------|
|-----7-9--------7-9-------7-9---9-7-------------------------7-9|
|-7/9-------7/9--------7/9-----------9\7p5-7-5-----------7/9----|
|----------------------------------------------7-7-5-7----------|
|---------------------------------------------------------------|

|---------------------------------------------------------------|
|------------------8--------------------------------------------|
|-----7-9------7-9---9-7----------------------------------------|
|-7/9------7/9-----------9/7p5-7p5------------------------------|
|-----------------------------------7-7-7-7-7---7-7-7-7-7-------|
|-----------------------------------------------------------0---|

|---------------------------------------------------------------|
|---------------------------------------------------------------|
|-----------------------------------------7-9--9-9-9-9----------|
|-------------------------------------7/9-----------------------|
|-7-7-7-7-7---7-7-7-7-7------7-7-7-7----------------------------|
|------------------------0--------------------------------------|

|---------------------------------------------------------------|
|-------------------------11p10p8-10-8----11p10p8-8--11p8-10p8--|
|-------------7-9--9-9-9---------------9---------9--------------|
|---------7/9---------------------------------------------------|
|-7-7-7-7-------------------------------------------------------|
|---------------------------------------------------------------|

|---------------------------------------------------------------|
|---8--11p8-10p8---8--11p8-10p8---------------------------------|
|-9--------------9--------------9-7-----------------------------|
|-----------------------------------9\7p5-7p5---5-7-5---7---5-7b|
|---------------------------------------------7--------7--7-----|
|---------------------------------------------------------------|

|---------------------------------------------------------------|
|---------------------------------------------------------------|
|-------------------------------7-9-7---------------------------|
|-5-7-5--7-5---7r-5-7-5-----7/9-------9/7p5-7-5-----7p5---5-----|
|-----------------------7-----------------------7-------7-------|
|---------------------------------------------------------------|

|---------------------------------------------------------------|
|---------------------------------------------------------------|
|---------------------------------------------------------------|
|-8p5---5-7p5---5-8p5---5-7p5---5-8p5---5-7p5---5-8p5---5-7p5---|
|-----7-------7-------7-------7-------7-------7-------8-------7-|
|---------------------------------------------------------------|

|---------------------------------------------------------------|
|---------------------------------------------------------------|
|---------------------------------------------------------------|
|-5-8p5---5-7p5---5-8p5---5-------------------------------------|
|-------7-------7-------7---7-7--7-7-7--5-----------------------|
|-----------------------------------------7-5-3-3-0-------------|

by Aldo Alain
Добавлено: 25.08.2013
Другие материалы по этой песне:
  • Аккорды и текст

Страница создана 25.08.2013
http://primanota.ru/ten-years-after/skoobly-oobly-doobob-chords.htm
Привет, Гость.
Предлагаем пройти революционный курс по гитаре.
Подарок от PrimaNota.Ru, забирай!