PrimaNota.ru - самый крупный в мире бесплатный архив песенных текстов, аккордов, табулатур и нот


Ten Years After - Im Going Home Live - таба, бас-таба, видео

Регистрация Запомнить меня
Войти через:  Facebook Google Twitter Vk Yandex Mail.ru

Ten Years After - Im Going Home Live - таба, бас-таба, видео

Печатать
Просмотров: 113
Уроки эстрадного вокала в Санкт-Петербурге
I'M GOING HOME (LIVE AT WOODSTOCK) (Live)

As recorded by Ten Years After
(From the 1969 Album MUSIC FROM THE ORIGINAL SOUNDTRACK AND MORE: WOODSTOCK)


Words and Music by Alvin Lee
Transcribed by Slowhand


Gtr I (E A D G B E) - 'Alvin Lee - Electric Guitar '


 Intro
  Q=234(8=s8)
  N.C.
 4/4
  Gtr I
                 |---3----| |-3-|                          |-3-|
  H    E E E E   E    +E  E E E E E E E E   Q      E E E E E E E
|--------------|--------------------------|----------------------|
|--------------|--------------------------|------------------5h7-|
|----------5-7-|-7pb8r(7)p5-7p5---7---5h7-|-5b5.5----------7-----|
|--------7-----|----------------7---7-----|--------7p5-7-7-------|
|--------------|--------------------------|----------------------|
|--------------|--------------------------|----------------------|


              |-3--|  |-3--|
  E a E E  E  E  E E  E E  E   Q       E E  Q  E  E
|-5-----8-10-11p10p8-10p8----|-8b8.5-----------8-11-|
|---7s9-------------------10-|--------10p8-10-------|
|----------------------------|----------------------|
|----------------------------|----------------------|
|----------------------------|----------------------|
|----------------------------|----------------------|


   |-3--| |-3--|  |-3--| |-3--|
   E E  E E  E E  E E  E E  E E
|-11p8-10p8----8-11p8-10p8------|
|-----------10-------------10p8-|
|-------------------------------|
|-------------------------------|
|-------------------------------|
|-------------------------------|


   |-3--| |-3--| |-3-| |-3-|   |-3-|      |-3-| |-3-|
   E E  E E  E E E E E E E E   E E E +Q   E E E E E E   Q    E E E E E E
|-11p8-10-8------------------|-----5-(5)--------------|------------------|
|-----------10p8-------------|------------------------|------------------|
|----------------9-9s7-7---5-|-7p5--------8-7p5-7p5---|-5b6--------5-7p5-|
|------------------------7---|----------------------7-|------7p5-7-------|
|----------------------------|------------------------|------------------|
|----------------------------|------------------------|------------------|


  |-3-| |-3-|                     |-3-|
  E E E E E E E E E E   +Q     q  E E E E E
|---------------------|--------5------------|
|---------------------|---------------------|
|-8p7p5-7p5---5-----7-|-(7)b9-----8p7-5-7-5-|
|---------------------|---------------------|
|-----------7---7-----|---------------------|
|---------------------|---------------------|


             |-3-|
  Q  E E E E E E E   E E E E +E  E E E
|--------5---------|-------------------||
|------------------|-------------------||
|----5h6---8p7p5---|-5-----------------||
|-7--------------7-|-----------------5-||
|------------------|---7-7-7-(7)-6s7---||
|------------------|-------------------||


 Guitar Solo #1
  N.C.
                               |-3-|               |-3--|  |-3--|
  Q  E E E E E E   Q  E E +Q   E E E   E a E E  E  E  E E  E E  E
|----------------|-------------------|-5-----8-10-11p10p8-10p8----|
|----------------|---------------5h7-|-------------------------10-|
|----------------|----5--------5-----|---7s9----------------------|
|-7----6s7---5-6-|-7----7-(7)--------|----------------------------|
|----------7-----|-------------------|----------------------------|
|----------------|-------------------|----------------------------|


                          |-3--| |-3--|  |-3--| |-3--|
  Q       E E  Q  E  E    E E  E E  E E  E E  E E  E E
|-8b8.5-----------8h11-|-11p8-10p8----8-11p8-10p8----8-|
|--------10p8-10-------|-----------10-------------10---|
|----------------------|-------------------------------|
|----------------------|-------------------------------|
|----------------------|-------------------------------|
|----------------------|-------------------------------|


   |-3--|    |-3-| |-3-|
   E E  E Q  E E E E E E
|-11p8-10p8--------------|
|--------------8---------|
|------------9---9s7---5-|
|--------------------7---|
|------------------------|
|------------------------|


  |3|    |-3-| |-3-|                        |-3-| |-3-|
  E Q Q  E E E E E E   Q      E E E E E E   E E E E E E E E E E
|---5-5--------------|--------------------|---------------------|
|--------------------|--------------------|---------------------|
|-7------8p7p5-7p5---|-5b5.5--------5-7p5-|-8p7p5-7p5---5-----7-|
|------------------7-|--------7-5-7-------|-----------7---------|
|--------------------|--------------------|---------------7-----|
|--------------------|--------------------|---------------------|


            |-3-|                   |-3-|
  +Q     q  E E E E E   E E E E E E E E E   E E E E +Q   Q
|--------5------------|---------5---------|------------------||
|---------------------|-----------8p7p5---|------------------||
|-(7)b9-----8p7p5-7p5-|-----5h6---------7-|-5----------------||
|---------------------|-7-7---------------|---7--------------||
|---------------------|-------------------|-----7-7-(7)--x---||
|---------------------|-------------------|------------------||


  N.C.
                                                    ~~~~
  E E E    +E   E E     +E   E   E    +E   E E     +E   E E E
|---5-----------5------------x-|-----------5------------------|
|---5-----------5-8b10==(8)r-x-|-------------8b10==(8)r-------|
|-----7b9==(7)r----------------|-7b9==(7)r--------------x-x-x-|
|------------------------------|------------------------------|
|------------------------------|------------------------------|
|------------------------------|------------------------------|


                                      ~~~
  E E E   E E Q     E   E   E E E    +E  E E E
|---5-------5---------|-------5----------------|
|---------5---8b10----|-----5---8b10-(8)-------|
|-x---7b9-----------x-|-7b9--------------x-x-x-|
|---------------------|------------------------|
|---------------------|------------------------|
|---------------------|------------------------|


  E E E   E E Q     E   Q    E E    +E  E E E
|---5-------5---------|------5----------------|
|---------5---8b10--x-|--------8b10-(8)-------|
|-x---7b9-------------|-7b9-------------x-x-x-|
|---------------------|-----------------------|
|---------------------|-----------------------|
|---------------------|-----------------------|


  E E E   E E Q     E   Q    E E    +Q   E E
|---5-------5---------|------5---------------|
|---------5---8b10--x-|--------8b10-(8)------|
|-x---7b9-------------|-7b9--------------x-x-|
|---------------------|----------------------|
|---------------------|----------------------|
|---------------------|----------------------|


  E E E   E E Q     E   Q    E E    +E  E E E
|---5-------5---------|------5----------------|
|---------5---8b10--x-|--------8b10-(8)-------|
|-x---7b9-------------|-7b9-------------x-x-x-|
|---------------------|-----------------------|
|---------------------|-----------------------|
|---------------------|-----------------------|


              |-3-|
  E E   +E  E E E E E E   E E E E +E  E E E
|-----------5-----------|-------------------||
|-----------------------|-------------0-----||
|---7b9-(7)---8p7p5-7-5h|=6-----------0-0h1-||
|-----------------------|---7-----------0h1-||
|-----------------------|-----7-7-(7)-------||
|-x---------------------|-------0-(0)-------||


  A5
  E E E E E E E E   E E E E E E E E   E E E E E E E E   +E  E E E E E E E
|-----------------|-----------------|-----------------|-------------------|
|-----------------|-----------------|-----------------|-------------------|
|-----------------|-----------------|---------------2-|-(2)-2-------------|
|-2---4---2---4---|-2---4---2---4---|-2---4---2---4---|-------4---2---4---|
|-0-0-0-0-0-0-0-0-|-0-0-0-0-0-0-0-0-|-0-0-0-0-0-0-0---|-------0-0-0-0-0-0-|
|-----------------|-----------------|-----------------|-------------------|


  D5                                  A5
  E E E E E E E E   E E E E E E E E   E E E E E E E E   E E E E E E E E
|-----------------|-----------------|-----------------|-----------------|
|-----------------|-----------------|-----------------|-----------------|
|-----------------|-----------------|-----------------|-----------------|
|-7---9---7---9---|-7---9---7---9---|-2---4---2---4---|-2---4---2---4---|
|-5-5-5-5-5-5-5-5-|-5-5-5-5-5-5-5-0-|-0-0-0-0-0-0-0-0-|-0-0-0-0-0-0-0---|
|-----------------|-----------------|-----------------|---------------0-|


  E5                                  A5
  E E E E E E E E   E E E E E E E E   E E E E E E E E   +E  E E E E E E E
|-----------------|-----------------|-----------------|-------------------||
|-----------------|-----------------|-----------------|-------------------||
|-----------------|-----------------|---------------2-|-(2)-2---------2-2-||
|-----------------|-----------------|-2---4---2---4-2-|-(2)-2-4---2---2-2-||
|-2---4---2---4---|-2---4---2---4---|-0-0-0-0-0-0-0---|-------0-0-0-0-0---||
|-0-0-0-0-0-0-0-0-|-0-0-0-0-0-0-0-0-|-----------------|-------------------||


                                                   ~~~
  E E E    +E   E E     +E   E   E    +E   E E    +E  E E E
|---5-----------5------------x-|-----------5----------------|
|---5-----------5-8b10==(8)r-x-|-------------8b10-(8)-------|
|-----7b9==(7)r----------------|-7b9==(7)r------------x-x-x-|
|------------------------------|----------------------------|
|------------------------------|----------------------------|
|------------------------------|----------------------------|


                                      ~~~
  E E E   E E Q     E   E   E E E    +E  E E E
|---5-------5---------|-------5----------------|
|---------5---8b10----|-----5---8b10-(8)-------|
|-x---7b9-----------x-|-7b9--------------x-x-x-|
|---------------------|------------------------|
|---------------------|------------------------|
|---------------------|------------------------|


  E E E   E E Q     E   Q    E E    +E  E E E
|---5-------5---------|------5----------------|
|---------5---8b10--x-|--------8b10-(8)-------|
|-x---7b9-------------|-7b9-------------x-x-x-|
|---------------------|-----------------------|
|---------------------|-----------------------|
|---------------------|-----------------------|


  E E E   E E Q     E   Q    E E    +Q   E E
|---5-------5---------|------5---------------|
|---------5---8b10--x-|--------8b10-(8)------|
|-x---7b9-------------|-7b9--------------x-x-|
|---------------------|----------------------|
|---------------------|----------------------|
|---------------------|----------------------|


  E E E   E E Q     E   Q    E E    +E  E E E
|---5-------5---------|------5----------------|
|---------5---8b10--x-|--------8b10-(8)-------|
|-x---7b9-------------|-7b9-------------x-x-x-|
|---------------------|-----------------------|
|---------------------|-----------------------|
|---------------------|-----------------------|


              |-3-|
  E E   +E  E E E E E E   E E E E +E  E E E
|-----------5-----------|-----------------8-||
|-----------------------|-------------------||
|---7b9-(7)---8p7p5-7-5h|=6-----------7s9---||
|-----------------------|---7---------------||
|-----------------------|-----7-7-(7)-------||
|-x---------------------|-------------------||


 Guitar Solo #2
  N.C.
   |-3--| |-3--|  |-3--| |-3--|
   E E  E E  E E  E E  E E  E E
|-11p8-10p8----8-11p8-10p8----8-|
|-----------10-------------10---|
|-------------------------------|
|-------------------------------|
|-------------------------------|
|-------------------------------|


   |-3--| |-3--|  |-3--| |-3--|    |-3--| |--3--|     |-3-|
   E E  E E  E E  E E  E E  E E    E E  E E  E  E E E E E E
|-11p8-10p8----8-11p8-10p8----8-|-11p8-10p8-------------------|
|-----------10-------------10---|-----------10-10-------------|
|-------------------------------|-----------------9-9s6---5---|
|-------------------------------|-----------------------7-----|
|-------------------------------|-----------------------------|
|-------------------------------|-----------------------------|


              |-3-|   |-3-|     |-3-| |-3-|              |-3--|  |-3--|
  E E E E E E E E E   E E E E E E E E E E E   E E  E  E  E  E E  E E  E
|-----5-------------|-------5-------5-------|-5----8-10-11p10p8-10p8-----|
|---5---------------|---5h7-----5h7-----5h7-|---7/-------------------10--|
|-7-----8p7p5-7p5---|-5-------5-------5-----|----------------------------|
|-----------------7-|-----------------------|----------------------------|
|-------------------|-----------------------|----------------------------|
|-------------------|-----------------------|----------------------------|


                        |-3-| |-3-|           |-3-| |-3-|
  Q       E E  E E Q    E E E E E E E E E E   E E E E E E E E E E
|-8b8.5----------8----|---------------------|---------------------|
|--------10-9s10---8--|---------------------|---------------------|
|---------------------|-9s7p5-7p5---5---5-7-|-8p7p5-7p5---5-----7-|
|---------------------|-----------7---7-----|-----------7---7-----|
|---------------------|---------------------|---------------------|
|---------------------|---------------------|---------------------|


             |-3-|
  +Q     E E E E E E E   E E E E E E     q    q  E E +E  E E E
|--------5-------------|---------5-------5--|------------------||
|----------8-----------|-----------8b8.5----|--------------0---||
|-(7)b9------8p7p5-7p5-|-----5h6------------|-5------------0-1-||
|----------------------|-7------------------|--------------0-1-||
|----------------------|---0----------------|----7-7-(7)-7-----||
|----------------------|--------------------|------------------||


  A5
  E E E E E E E E   E E E E E E E E   E E E E E E E E   +E  E E E E E E E
|-----------------|-----------------|-----------------|-------------------|
|-----------------|-----------------|-----------------|-------------------|
|-----------------|-----------------|---------------2-|-(2)-2-------------|
|-2---4---2---4---|-2---4---2---4---|-2---4---2---4---|-------4---2---4---|
|-0-0-0-0-0-0-0-0-|-0-0-0-0-0-0-0-0-|-0-0-0-0-0-0-0---|-------0-0-0-0-0-0-|
|-----------------|-----------------|-----------------|-------------------|


  D5                                  A5
  E E E E E E E E   E E E E E E E E   E E E E E E E E   E E E E E E E E
|-----------------|-----------------|-----------------|-----------------|
|-----------------|-----------------|-----------------|-----------------|
|-----------------|-----------------|-----------------|-----------------|
|-7---9---7---9---|-7---9---7---9---|-2---4---2---4---|-2---4---2---4---|
|-5-5-5-5-5-5-5-5-|-5-5-5-5-5-5-5-0-|-0-0-0-0-0-0-0-0-|-0-0-0-0-0-0-0---|
|-----------------|-----------------|-----------------|---------------0-|


  E5                                  A5
  E E E E E E E E   E E E E E E E E   E E E E E E E E   +E  E E E E E E E
|-----------------|-----------------|-----------------|-------------------||
|-----------------|-----------------|-----------------|-------------------||
|-----------------|-----------------|---------------2-|-(2)-2---------2-2-||
|-----------------|-----------------|-2---4---2---4-2-|-(2)-2-4---2---2-2-||
|-2---4---2---4---|-2---4---2---4---|-0-0-0-0-0-0-0---|-------0-0-0-0-0---||
|-0-0-0-0-0-0-0-0-|-0-0-0-0-0-0-0-0-|-----------------|-------------------||


  A5
  PM-----------------------------------------------------|
  Q  Q  Q  Q    Q  Q  Q  Q    Q  Q  E E E E   E E Q  E E Q
|-------------|-------------|---------------|---------------|
|-------------|-------------|---------------|---------------|
|-------------|-------------|-------------2-|---2------2----|
|-2--4--2--4--|-2--4--2--4--|-2--4--2-2-4-2-|---2-2--2-2-4--|
|-0--0--0--0--|-0--0--0--0--|-0--0--0---0-0-|-----0--0---0--|
|-------------|-------------|---------------|---------------|


  D5                          A5
  PM-----------------------------------------------------|
  Q  Q  Q  Q    Q  Q  Q  Q    Q  Q  Q  E E   +E  E Q  Q  Q
|-------------|-------------|--------------|----------------|
|-------------|-------------|--------------|----------------|
|-------------|-------------|------------2-|-(2)-2----------|
|-7--9--7--9--|-7--9--7--9--|-2--4--2--4-2-|-(2)-2-4--2--2--|
|-5--5--5--5--|-5--5--5--5--|-0--0--0--0---|-------0--0--0--|
|-------------|-------------|--------------|----------------|


  E5                          A5
  PM----------------------------------------|
  Q  Q  Q  Q    Q  Q  Q  Q    Q  Q  Q  Q    q  Q  H
|-------------|-------------|-------------|------------||
|-------------|-------------|-------------|------------||
|-------------|-------------|-------------|-2----------||
|-------------|-------------|-2--4--2-----|-2----------||
|-2--4--2--4--|-2--4--2--4--|-0--0--0--x--|-0----------||
|-0--0--0--0--|-0--0--0--0--|-------------|------------||


  N.C.
  PM-----------|              PM-----------|
  E E E E Q  E E   W          E E E E Q  E E   W
|----------------|----------|----------------|------|
|----------------|----------|----------------|------|
|----------------|----------|----------------|------|
|---------0------|----------|---------0------|------|
|---0-3p0----3-0-|----------|---0-3p0----3-0-|------|
|----------------|----------|----------------|------|


     |-3-|
  Q  E E E E E      +Q      q  Q  H      E E E E Q  E E   +E  E Q  H
|-------------------------|------------|----------------|---------------|
|-------------------------|------------|----------------|---------------|
|-------------------------|------------|----------------|-----2---------|
|----2p0---0--------------|------------|---0-----0------|-----2---------|
|--------3---3b3.5==(3)r--|-0----------|-----3p0----3-0-|-(0)-----------|
|-------------------------|------------|----------------|---------------|


                              PM-------|
  H    E E Q    W          Q  Q  E E E E   W
|--------0----|----------|---------------|------||
|--------0-x--|----------|---------------|------||
|------x------|----------|----4--2-2-4-2-|------||
|-------------|----------|----0--0-0-0-0-|------||
|-------------|----------|---------------|------||
|-------------|----------|---------------|------||


    A5
    PM-----------------------------------------------------|
    Q  Q  Q  Q    Q  Q  Q  Q    Q  Q  E E E E   E E Q  E E Q
||--------------|-------------|---------------|----------------|
||o-------------|-------------|---------------|----------------|
||--------------|-------------|-------------2-|---2------2-----|
||--2--4--2--4--|-2--4--2--4--|-2--4--2-2-4-2-|---2-2--2-2-4---|
||o-0--0--0--0--|-0--0--0--0--|-0--0--0---0-0-|-----0--0---0---|
||--------------|-------------|---------------|----------------|


  D5                          A5
  PM-----------------------------------------------------|
  Q  Q  Q  Q    Q  Q  Q  Q    Q  Q  Q  E E   +E  E Q  Q  Q
|-------------|-------------|--------------|----------------|
|-------------|-------------|--------------|----------------|
|-------------|-------------|------------2-|-(2)-2----------|
|-7--9--7--9--|-7--9--7--9--|-2--4--2--4-2-|-(2)-2-4--2--2--|
|-5--5--5--5--|-5--5--5--5--|-0--0--0--0---|-------0--0--0--|
|-------------|-------------|--------------|----------------|


  E5                          A5
  PM-------------------------------------------------------|
  Q  Q  Q  Q    Q  Q  Q  Q    Q  Q  Q  E E   +E  E E E E E Q
|-------------|-------------|--------------|-------------------||
|-------------|-------------|--------------|------------------o||
|-------------|-------------|------------2-|-(2)-2-------2-----||
|-------------|-------------|-2--4--2--4-2-|-(2)---2-2-2-2-4---||
|-2--4--2--4--|-2--4--2--4--|-0--0--0--0---|-------0-0-0---0--o||
|-0--0--0--0--|-0--0--0--0--|--------------|-------------------||


   "Blue Suede Shoes"
    A5                                                D5
    PM           PM           PM
    q  Q  H      q  Q  H      q  Q  H      Q  Q  Q  E E
||-------------|------------|------------|---------------|
||o------------|------------|------------|---------------|
||-------------|------------|------------|------------2--|
||--2----------|-2----------|-2----------|------------0--|
||o-0----------|-0----------|-0----------|-0--2--3--4----|
||-------------|------------|------------|---------------|


                                  A5
      PM-----------------|   PM---------------------|
  +E  E Q  Q  Q    Q  Q  E E Q    E E Q  Q  Q    Q  E E +E  E Q
|----------------|--------------|--------------|-----------------|
|----------------|---------2----|--------------|-----------------|
|-(2)-2-4--2--4--|-2--4--2-2-4--|---2----------|------2-(2)-2----|
|-(0)---0--0--0--|-0--0--0---0--|-2-2-4--2--4--|-2--4-2-(2)-2-4--|
|----------------|--------------|-0---0--0--0--|-0--0-0-(0)-0-0--|
|----------------|--------------|--------------|-----------------|


  E5                            A5
  PM----------------------------|   PM------------|       PM
  E E Q  Q  Q    Q  Q  Q  E E   E E Q  Q  Q    Q  E E E E Q
|--------------|--------------|--------------|----------------||
|--------------|--------------|---2----------|----------2----o||
|--------------|--------------|---2----------|------2---2-----||
|--------------|------------2-|-2-2-4--2--4--|-2--4-2---2-4---||
|-2-2-4--2--4--|-2--4--2--4---|-0---0--0--0--|-0--0-0-----0--o||
|-0-0-0--0--0--|-0--0--0--0---|--------------|----------------||


 "Whole Lotta Shakin' "
  N.C.
  PM------------------------------------------------------------------|
  E E E E E E E E   E E E E E E E E   E E E E E E E E   E E E E E E E E
|-----------------|-----------------|-----------------|-----------------|
|-----------------|-----------------|-----------------|-----------------|
|-----------------|-----------------|-----------------|-----------------|
|-2---4---2---4---|-2---4---2---4---|-2---4---2---4---|-2---4---2---4---|
|---0---0---0---0-|---0---0---0---0-|---0---0---0---0-|---0---0---0---0-|
|-----------------|-----------------|-----------------|-----------------|


  PM-------------------------------------------------------------------|
  E E E E E E E E   E E E E E E E  E   E E E E E E E E   E E E E E E E E
|-----------------|------------------|-----------------|-----------------|
|-----------------|------------------|-----------------|-----------------|
|-----------------|------------------|-----------------|-----------------|
|-7---9---7---9---|-7---9---7---4\---|-2---4---2---4---|-2---4---2---4---|
|---5---5---5---5-|---5---5---5----0-|---0---0---0---0-|---0---0---0-----|
|-----------------|------------------|-----------------|---------------0-|


  PM----------------------------------------------|
  E E E E E E E E   E E E E E E E E   E E E E E E E E   +E  E E E E E Q
|-----------------|-----------------|-----------------|------------------||
|-----------------|-----------------|-----------------|-------------2----||
|-----------------|-----------------|---------------2-|-(2)-2-----2-2----||
|-----------------|-----------------|-2---4---2---4---|-------4---2---4--||
|-2---4---2---4---|-2---4---2---4-0-|---0---0---0-----|---------0-----0--||
|---0---0---0---0-|---0---0---0-----|-----------------|------------------||


    A5
    PM-------------|   PM------------------------|   PM----|
    Q  Q  Q  E E   E E Q  Q  Q    Q  Q  Q  E E   E E Q  Q  Q
||---------------|--------------|--------------|---------------|
||o--------------|---2----------|--------------|---2-----------|
||---------------|---2----------|--------------|---2-----------|
||--2--4--2--4-4-|-2---4--2--4--|-2--4--2--4-4-|-2---4--2--4---|
||o-0--0--0--0-0-|-0---0--0--0--|-0--0--0--0-0-|-0---0--0--0---|
||---------------|--------------|--------------|---------------|


  D5                            A5
  PM-------------|   PM------------------------|   PM----|
  Q  Q  Q  E E   E E Q  Q  Q    Q  Q  Q  E E   E E Q  Q  Q
|--------------|---5----------|--------------|--------------|
|--------------|---5----------|--------------|---2----------|
|--------------|--------------|--------------|---2----------|
|-7--9--7--9-7-|-7---9--7--x--|-2--4--2--4-4-|-2---4--2--4--|
|-5--5--5--5-5-|-5---5--5--x--|-0--0--0--0-0-|-0---0--0--0--|
|--------------|--------------|--------------|--------------|


  E5                          A5
  PM----------------------------------------|   PM----|
  Q  Q  Q  Q    Q  Q  Q  Q    Q  Q  Q  Q    E E Q  Q  Q
|-------------|-------------|-------------|---------------||
|-------------|-------------|-------------|---2----------o||
|-------------|-------------|-------------|---2-----------||
|-------------|-------------|-2--4--2--4--|-2---4--2--4---||
|-2--4--2--4--|-2--4--2--4--|-0--0--0--0--|-0---0--0--0--o||
|-0--0--0--0--|-0--0--0--0--|-------------|---------------||


       A5
  H    Q  E E   W          H    Q  E E   W
|-------------|----------|-------------|------|
|-------------|----------|-------------|------|
|-------------|----------|-------------|------|
|------2----2-|----------|------2----2-|------|
|------0----0-|----------|------0----0-|------|
|-------------|----------|-------------|------|


       D5                       A5
  H    Q  E E   W          H    Q  E E   W
|-------------|----------|-------------|------|
|-------------|----------|-------------|------|
|-------------|----------|-------------|------|
|------7----7-|----------|------2----2-|------|
|------5----5-|----------|------0----0-|------|
|-------------|----------|-------------|------|


       E5
  H    Q  E E   W          W          W
|-------------|----------|----------|------||
|-------------|----------|----------|------||
|-------------|----------|----------|------||
|-------------|----------|----------|------||
|------2----2-|----------|----------|------||
|------0----0-|----------|----------|------||


  N.C.                     A5                N.C.
                                               PM-|
  Wx24          W          Q  Q  H      Q  E E Q  Q
|-------------|----------|------------|--------------|
|-------------|----------|------------|--------------|
|-------------|----------|------------|--------------|
|-------------|----------|-2----------|--------------|
|-------------|----------|-0----------|------x-3--5--|
|-------------|----------|------------|--------------|


  PM                  PM------|                 PM---|
  Q  Q  H      Q  E E Q  Q    Q  Q  H      Q  E E Q  Q
|------------|--------------|------------|--------------|
|------------|--------------|------------|--------------|
|------------|--------------|------------|--------------|
|------------|------x-3--5--|-0----------|------2-------|
|-0----------|--------------|------------|--------3--5--|
|------------|--------------|------------|--------------|


  PM
  Q  Q  H      W          W          W          W
|------------|----------|----------|----------|------||
|------------|----------|----------|----------|------||
|------------|----------|----------|----------|------||
|------------|----------|----------|----------|------||
|-0----------|----------|----------|----------|------||
|------------|----------|----------|----------|------||


                Guitar Solo #3
  N.C.           N.C.
                                                            |-3--|
  Wx24            H        +Q   Q    H     Q       +E  E    E E  E  +Q   q  Q
|-------------||-10b12----(10)-----|------10pb12r=(10)p8-|-10-8----------8-----|
|-------------||-------------------|---------------------|------10-(10)--------|
|-------------||-------------------|---------------------|---------------------|
|-------------||-------------------|---------------------|---------------------|
|-------------||-------------------|---------------------|---------------------|
|-------------||-------------------|---------------------|---------------------|


             |--3--|
  W          E  E  E  q   q   q
|----------|---------------------|
|----------|------10-12--10--12--|
|----------|-9s11----------------|
|----------|---------------------|
|----------|---------------------|
|----------|---------------------|


        |--3--|  |--3--|
  H     E  E  E  E  E  E    Q  E  E     +Q   E E
|------------------------|------------------------|
|------13p12p10-12p10----|-10----12b14-(12)--x-x--|
|---------------------12-|------------------------|
|------------------------|------------------------|
|------------------------|------------------------|
|------------------------|------------------------|


  Q  a E E E a  Q.     E E Q  Q  E  E
|----------5---------|-------------10b12==|
|-x------7---8s10----|-8------------------|
|----4s5-7-----------|---9----------------|
|--------------------|--------------------|
|--------------------|--------------------|
|--------------------|--------------------|


   +H.       +Q      H     +Q    q
|-(10)------(10)--|-10r===(10)--10----|
|-----------------|-------------------|
|-----------------|-------------------|
|-----------------|-------------------|
|-----------------|-------------------|
|-----------------|-------------------|


          |-3-| |-3-|
  Q   E E E E E E E E   Q    E E E E     Q
|-8-------------------|---------------------|
|----10-8-------------|---------------------|
|---------9s7p5-6p5---|-5b6--------5b5.5----|
|-------------------7-|------7p5-7----------|
|---------------------|---------------------|
|---------------------|---------------------|


  H    E E E a  E    +Q   E E  E E Q    W
|----------5------|--------------8----|------|
|--------7---8s10-|-(10)--8---10------|------|
|------5----------|---------9---------|------|
|-----------------|-------------------|------|
|-----------------|-------------------|------|
|-----------------|-------------------|------|


   |-3--|                  |-3-|
   E  E E  E E  E E  E E   E E E E E E E E E
|-11p10p8---------8------|-------------------|
|---------10-9h10---10---|-------------------|
|----------------------9-|-8p7p5-7p5-------5-|
|------------------------|-----------7-6-7---|
|------------------------|-------------------|
|------------------------|-------------------|


                            |-3-| |-3-|
  q  E E q  E E   Q  Q      E E E E E E
|---------------|-----------------------|
|---------------|-----------------------|
|---------------|-----------------------|
|-7-------------|-----------------5h6h7-|
|----7-6-5--5---|-5---------5h6h7-------|
|-------------8-|----8b8.5--------------|


      |-3-|           |-3-|
  E E E E E E E E E   E E E E E  E E  Q
|-------------------|-------5------8-10--|
|-------------------|---5h7---7s10-------|
|-5h7-8s9-x-7-5h6---|-5------------------|
|-----------------7-|--------------------|
|-------------------|--------------------|
|-------------------|--------------------|


                         |-3-| |-3-|
  Q       E E  E E  Q    E E E E E E E E E   +E
|-8b8.5----------8-----|-------------------------|
|--------10-9h10---10--|-------------------------|
|----------------------|-9s7p5-7p5---7---5b6-(5)-|
|----------------------|-----------7---7---------|
|----------------------|-------------------------|
|----------------------|-------------------------|


                       |-3-| |-3-|                          |-3-| |-3-|
  Q  E E E E Q    H    E E E E E E   Q    E E E E Q    H    E E E E E E
|---------------|------------------|-----------------|------------------|
|---------------|------------------|-----------------|------------------|
|----------5h6--|------8p7p5-7p5---|-5b7--------5----|------8p7p5-7p5---|
|-7--7p5-7------|----------------7-|------7p5-7------|----------------7-|
|---------------|------------------|-----------------|------------------|
|---------------|------------------|-----------------|------------------|


                              |-3-| |-3-|
  Q    E E E E    +Q     H    E E E E E E   Q    E E E E Q    H    E E E E
|------5---5-----------|------------------|-----------------|------------8---|
|--------8---8b10-(8)--|------------------|-----------------|----------------|
|-7b9------------------|------8p7p5-7p5---|-5b7--------5----|--------6s8-----|
|----------------------|----------------7-|------7p5-7------|----------------|
|----------------------|------------------|-----------------|----------------|
|----------------------|------------------|-----------------|----------------|


                                                     ~
       |-3--| |-3-|        |-3--| |-3-| |-3-|
   E E E E  E E E E  E E   E E  E E E E E E E Q      Q  E E E E     E E
|--------8--------8------|---8---------------------|--------------------|
|-10-------10-------10---|-----10------------------|--------------------|
|----7s9------7s9------7s|=9------9s7p5-7p5---5b6--|----5---7-5b5.5-----|
|------------------------|------------------7------|-7----7-----------7-|
|------------------------|-------------------------|--------------------|
|------------------------|-------------------------|--------------------|


                      |-3--|
    Q  E  E     +Q    E E  E   Q   E E  Q  Q   4x
||-------10b12-(10)--10p8----|-8-----------8---||
||o-----------------------10-|----10p8-10-----o||
||---------------------------|-----------------||
||---------------------------|-----------------||
||o--------------------------|----------------o||
||---------------------------|-----------------||


                     |-3--|
  Q  E  E     +E  E  E E  E    E  E E E E E  E E
|------10b12-(10)-8-10p8----|-10----8----------8--|
|------------------------10-|----10-------9s10----|
|---------------------------|---------9-----------|
|---------------------------|---------------------|
|---------------------------|---------------------|
|---------------------------|---------------------|


                                                          ~~~
                                |3|
   E E E E E E E E   Q  E E E E E Q   Q  E E +E  E E E    Q.   E H
|------------------|--------5-------|------------------|-------8------|
|-10---------------|----------8-7-5-|----------------8-|-10-----------|
|----9-8s5-7p5-----|----5h6---------|-5----------5s8---|--------------|
|--------------7p5-|-7--------------|------------------|--------------|
|------------------|----------------|----7-7-(7)-------|--------------|
|------------------|----------------|------------------|--------------|


                           ~~
                                          |--3--|                     |--3---|
  H    E E E E    E E  q   Q  Q    H      Q  Q  Q    H         +Q    +E   E  E
|------------8-|-10p8---------8--|----------12-15-|-15b17=====(15)r=(15)-12----|
|--------------|------10--10-----|------/13-------|-------------------------15-|
|--------7s9---|-----------------|----------------|----------------------------|
|--------------|-----------------|----------------|----------------------------|
|--------------|-----------------|----------------|----------------------------|
|--------------|-----------------|----------------|----------------------------|


   Q   Q   E  E  Q          Q   E  E  E  E Q
|-12---------------------|--------------------|
|-----15--13-15-13b13.5--|--------------13----|
|------------------------|-14--14p12-14-------|
|------------------------|--------------------|
|------------------------|--------------------|
|------------------------|--------------------|


        |--3--|
  H     Q  Q  Q    E  E  E  E  +E   E  E  E
|------17-20-22-|-20-17-20-22-(22)-20-17-20--|
|---------------|----------------------------|
|---------------|----------------------------|
|---------------|----------------------------|
|---------------|----------------------------|
|---------------|----------------------------|


                    |---3----|
   +E   Q   E      +E   +E   E  Q     Q   Q       +Q    Q
|-(20)-22--20b22==(20)r(20)p17-----|-----------------------|
|------------------------------20--|-17--20b22===(20)r-----|
|----------------------------------|-----------------------|
|----------------------------------|-----------------------|
|----------------------------------|-----------------------|
|----------------------------------|-----------------------|


                    |--3--|  |--3--|  |--3--|
  W           E  E  E  E  E  E  E  E  E  E  E
|----------|-20-17-20p17-17-20p17-17-19p17-17-|
|----------|----------------------------------|
|----------|----------------------------------|
|----------|----------------------------------|
|----------|----------------------------------|
|----------|----------------------------------|


   Q     Q  H       q   E  E  E  E  Q
|-20b22----------|-20--20p17-20p17-----|
|----------------|-----------------20--|
|----------------|---------------------|
|----------------|---------------------|
|----------------|---------------------|
|----------------|---------------------|


                   |--3--|  |--3--|  |--3--|  |--3--|
   Q  Q  Q  E E    E  E  E  E  E  E  E  E  E  E  E  E
|-17------------|-20p17-17-20p17-17-20p17-17-20p17-17-|
|-17----------x-|-------------------------------------|
|---------------|-------------------------------------|
|---------------|-------------------------------------|
|---------------|-------------------------------------|
|---------------|-------------------------------------|


   Q     Q  H       E  E  E  E  E  E  q
|-20b22----------|-20p17-20p17-20p17-----|
|----------------|-------------------20--|
|----------------|-----------------------|
|----------------|-----------------------|
|----------------|-----------------------|
|----------------|-----------------------|


   Q  Q  H       Q     E  E E  Q       E
|-17----------|-20b22----20---20pb22--20b22-|
|-------------|-----------------------------|
|-------------|-----------------------------|
|-------------|-----------------------------|
|-------------|-----------------------------|
|-------------|-----------------------------|


                                      |--3--|
   +Q    Q   E  E  E  E       +H      E  E  E  Q     Q  Q  E E S S E
|-(20)--20--17-------------|----------------------|----------------5--|
|--------------20p17-20b22-|-(20)-----------------|--------------7----|
|--------------------------|---------20p19p17-19--|-17-------5s6------|
|--------------------------|----------------------|-------------------|
|--------------------------|----------------------|-------------------|
|--------------------------|----------------------|-------------------|


    S S S S E S S S S E S S S S
||----------5---------5---------|
||o-----5h7-------5h7-------5h7-|
||--5s6-------5s6-------5s6-----|
||------------------------------|
||o-----------------------------|
||------------------------------|


  E S S S S E S S S S E S S   S S E S S S S E S S S S E   4x
|-5---------5---------5-----|-----5---------5---------5---||
|-------5h7-------5h7-------|-5h7-------5h7-------5h7----o||
|---5s6-------5s6-------5s6-|-------5s6-------5s6---------||
|---------------------------|-----------------------------||
|---------------------------|----------------------------o||
|---------------------------|-----------------------------||


  N.C.                                     A5            D/A
                                                    PM
  Q     E E H      W          W          E E E E Q  Q    q  Q  H      W
|-8b10-----------|----------|----------|---------------|------------|------|
|----------------|----------|----------|---------------|-7----------|------|
|-------x-x------|----------|----------|---------------|-7----------|------|
|----------------|----------|----------|---2---2-2-----|-7----------|------|
|----------------|----------|----------|---0-----0--0--|------------|------|
|----------------|----------|----------|---------------|------------|------|


               A5            E5
                             PM
  W          E q  E E E Q    Q  Q  H
|----------|---------------|------------|
|----------|---------------|------------|
|----------|--------2-2----|------------|
|----------|---2--2-2-2----|------------|
|----------|---0-----------|-2----------|
|----------|---------------|-0----------|


                A5
                PM-|
  W          Q  Q  E E Q    q  Q  H
|----------|--------------|------------||
|----------|--------------|------------||
|----------|---------2----|------------||
|----------|----2--2-2----|-2----------||
|----------|----0--0---0--|-0----------||
|----------|--------------|------------||


  A5                                                            D5
  PM------------------------------------------------------------|   PM----|
  E E Q  Q  Q    Q  Q  E E Q    E E Q  Q  Q    E E Q  E E E E   E E Q  Q  Q
|--------------|--------------|--------------|----------------|----------------|
|--------------|--------------|---2----------|----------------|----------------|
|--------------|---------2----|---2----------|----------------|---7------------|
|-2-2-4--2--4--|-2------------|---2----2--4--|-2-2-4--2-2-----|-7-7-9--7--9----|
|-0-0-0--0--0--|-0------------|-----0--0--0--|-0---0--0---0-5-|-5---5--5--5----|
|--------------|--------------|--------------|----------------|----------------|


                A              A5              E5
  PM-|              PM-----------------------------------|
  Q  Q  Q  Q    E E Q  Q  Q    Q  E E E E Q    E E Q  Q  Q    W
|-------------|--------------|---------------|--------------|------|
|-------------|---2----------|---------------|--------------|------|
|-------------|---2----------|------2---2----|--------------|------|
|-7--9--------|---2-4--2--4--|-2--4-2--------|--------------|------|
|-5--5--x--x--|-----0--0--0--|-0--0----------|-2-2-4--2--4--|------|
|-------------|-0------------|------------0--|-0-0-0--0--0--|------|


                                 A
                                   PM------------------------|   PM    PM
  E E q  q  q    q  Q  H       E E q  Q  Q    E E Q  Q  Q    E E Q  Q  Q
|---2----------|------------||---2----2-----|--------------|----------------|
|---2----2-----|------------||---2----2-----|--------2-----|---2----2-------|
|---2-2--2-----|------------||---2-2--2-----|---2----2-----|---2----2-------|
|--------2--4--|-2----------||-----------4--|-2---4--2--4--|-2---4--2--4----|
|-----------0--|-0----------||-----------0--|-0---0-----0--|-0---0--0--0----|
|--------------|------------||--------------|--------------|----------------|


                  D
      PM    PM----------|    PM---
  E E Q  q  E E   E E E E Q  E E
|--------2------|----------------|
|---2----2------|---------7------|
|---2----2----2-|---7-----7------|
|-----4-----4---|-7---9-9-7--9-9-|
|-----0-----0---|-5---5---5--5---|
|---------------|----------------|


                   A
 -------|    PM--------|     PM-------|     PM|
  E E E E Q  E E   E E Q  q  Q    E E Q  q  E E
|----------------|--------------|-----------------|
|---------7------|--------2-----|--------2--------|
|---7-----7------|---2----2-----|---2----2--------|
|-7---9-9-7--9-9-|-2---4--2--4--|-2---4--2--4-4---|
|-5---5---5--5---|-0---0-----0--|-0---0-----0-----|
|----------------|--------------|-----------------|


  E
  PM--------------|                  PM--|     PM
                                                          |---3---|
  E E E E Q  Q    Q  E E   E E E E   E E Q  q  Q    q  Q  E   +E  E E E
|---------------|------------------|--------2-----|-2-------------------||
|---------------|------------------|---2----2-----|-2-----------------2-||
|---------2-----|-2----4b6---2---2-|---2----2-----|-2-----4b6-(4)-2---2-||
|---2-----2-----|-2--x---------4---|-2-2-4-----4--|-2--4------------4---||
|-2-2-4-4-2--4--|-2----------------|-0---0-----0--|----0----------------||
|-0---0---0--0--|-0----------------|--------------|---------------------||


    A
        PM--|
    E E E E E E E E   E E E E   E E E E
||------------2-----|-2-----------------|
||o---2-------2-----|-2---------------2-|
||----2-------2-----|-2-----4b6---2---2-|
||--2---4-4-2---x-x-|-2-2-4---------4-2-|
||o-----0-0-0-------|-------------------|
||------------------|-------------------|


        PM--|   PM
  +E  E E E E E Q    Q  E E   +E  E E E
|------------------|--------------------|
|-(2)-2-------2----|-2------------------|
|-(2)-2-------2----|-2----4b6-(4)-2---2-|
|-(2)-2-4---2-2-4--|-2--------------4---|
|-------0-0-0---0--|-0--0---------------|
|------------------|--------------------|


  D5                               A
  PM-----|   PM                              PM  PM  PM      PM      PM
  E E Q  E E Q    Q  E E   +E  E E E   +E  E E E E E Q    Q  E E E E E E
|---------------|--------------------|------------------|-----------------|
|----------3----|-3------------------|-----2---0--------|------2---2---0--|
|-2-2-4--2-2-4--|-2----4b6r(4)-2---2-|-(2)-2---0---2----|-2----2---2---0--|
|-0-0-0--0---0--|-0--4-----------4-2-|-(2)---4---2-2-4--|-2--4-2---2-4----|
|---------------|--------------------|-------0---0---0--|-0--0-------0----|
|---------------|--------------------|------------------|-----------------|


  E5                                  A
  PM------------------|               PM  PM|     PM
  E E Q  E E Q    E E E E   E E E E   E E E E E E E E   Q  Q  H
|---------------|-------------------|-----------------|-------------||
|---------------|-------------------|---2-----2-x-----|------------o||
|---------------|-------4b6---2-----|---2-----2-x---x-|-2-----------||
|---------------|---------------4-2-|-2---4-4-2-x-4---|-2-----------||
|-2-2-4--2-2-4--|-2-2-4-------------|-0---0---0---0---|-0----------o||
|-0---0--0---0--|-0-0-0-------------|-----------------|-------------||


    N.C.
    Wx12            Wx23          H    E E  Q
||---------------||-------------|---------------||
||o-------------o||-------------|---------------||
||---------------||-------------|---------------||
||---------------||-------------|---------------||
||o-------------o||-------------|---------------||
||---------------||-------------|--------5s16\--||


    $
    A5                                                                  D5
    E E E E E E E E   E E E E E E E E   E E E E E E E E   E E E E E E E E
||------------------|-----------------|-----------------|------------------|
||o-----------------|-----------------|-----------------|------------------|
||------------------|-----------------|-----------------|---------------2--|
||--2---4---2---4---|-2---4---2---4---|-2---4---2---4---|-2---4---2---4-0--|
||o-0-0-0-0-0-0-0-0-|-0-0-0-0-0-0-0-0-|-0-0-0-0-0-0-0-0-|-0-0-0-0-0-0-0----|
||------------------|-----------------|-----------------|------------------|


                                  A5
  E E E E E E E E   E E E E E E E E   E E E E E E E E   E E E E E E E E
|-----------------|-----------------|-----------------|-----------------|
|-----------------|-----------------|-----------------|-----------------|
|-2---4---2---4---|-2---4---2---4---|-----------------|-----------------|
|-0-0-0-0-0-0-0-0-|-0-0-0-0-0-0-0-2-|-2---4---2---4---|-2---4---2---4---|
|-----------------|---------------0-|-0-0-0-0-0-0-0-0-|-0-0-0-0-0-0-0---|
|-----------------|-----------------|-----------------|---------------0-|


                                                                  To Coda
  E5                              A5                    A
  E E E E E E E E   E E E E E E E E   E E E E E E E E   Q  E E +E  E E E   4x
|-----------------|-----------------|-----------------|--------------------||
|-----------------|-----------------|-----------------|-2----2-(2)-----2--o||
|-----------------|-----------------|-----------------|-2----2-(2)-2---2---||
|-----------------|---------------2-|-2---4---2---4---|-2--4-2-(2)-2-4-2---||
|-2---4---2---4---|-2---4---2---4-0-|-0-0-0-0-0-0-0-0-|-0--0-0-(0)-0-0-0--o||
|-0-0-0-0-0-0-0-0-|-0-0-0-0-0-0-0---|-----------------|--------------------||


 Guitar Solo #3
  N.C.
   TP   TP TP   TP    TP   TP TP   TP
   Q.   E  Q.   E     Q.   E  Q.   E
|------------------|------------------|
|-/8----7/-8----7/-|-/8----7/-8----7/-|
|-/9----8/-9----8/-|-/9----8/-9----8/-|
|------------------|------------------|
|------------------|------------------|
|------------------|------------------|


   TP   TP TP   TP    TP   TP TP       TP    TP  TP    TP
   Q.   E  Q.   E     Q.   E  H        Q.    E   Q.    E
|------------------|---------------|----------------------|
|-/8----7/-8----7/-|-/8----7/-8----|-/10-----9/-10-----9/-|
|-/9----8/-9----8/-|-/9----8/-9----|-/11----10/-11----10/-|
|------------------|---------------|----------------------|
|------------------|---------------|----------------------|
|------------------|---------------|----------------------|


    TP    TP  TP      TP   TP TP   TP
    Q.    E   H       Q.   E  Q.   E
|------------------|------------------|
|-/10-----9/-10----|-/8----7/-8----7/-|
|-/11----10/-11----|-/9----8/-9----8/-|
|------------------|------------------|
|------------------|------------------|
|------------------|------------------|


   TP   TP TP      TP       TP      TP       TP TP
   Q.   E  H       Q.   E   H       Q.   E   Q  Q
|---------------|-/9----8/-/9----|-/7----6/-/7-----|
|-/8----7/-8----|-/9----8/-/9----|-/7----6/-/7--8--|
|-/9----8/-9----|-/9----8/-/9----|-/7----6/-/7--8--|
|---------------|----------------|-----------------|
|---------------|----------------|-----------------|
|---------------|----------------|-----------------|


  TP         TP   TP
  W          H    E   Q   E      Q      E  E     +E   E  Q
|----------|--------/17--17-||---------17------------17--------|
|-8--------|-8----8---------||o-20b22-----20b22-(20)----20b22--|
|-9--------|-9----9---------||---------------------------------|
|----------|----------------||---------------------------------|
|----------|----------------||o--------------------------------|
|----------|----------------||---------------------------------|


   E  E     +E   E  Q      E  E       +E   E  Q      E  E     +E   E  3x
|-17------------17--------17-------|------17--------17------------17--||
|----20b22-(20)----20b22-----20b22-|-(20)----20b22-----20b22-(20)----o||
|----------------------------------|----------------------------------||
|----------------------------------|----------------------------------||
|----------------------------------|---------------------------------o||
|----------------------------------|----------------------------------||


                                    |--3--|
   E  E  E  E  E  E  E  E    Q      E  E  E  E     E  E  E
|-20p17-19p17-20p17-19p17-|-20b22--20p17----------17----17-|
|-------------------------|--------------20-20b22----20-17-|
|-------------------------|--------------------------------|
|-------------------------|--------------------------------|
|-------------------------|--------------------------------|
|-------------------------|--------------------------------|


                    G/G#/C  A/C#
   E  E  E  E  E  E E E     Q  E E Q  E E
|----17-17----------3S4-||--5--7-7-5-------|
|-20-17-17-17-----0-3S4-||o-5--7-7-5-------|
|-------------19\-0-4S5-||--6------6--7-5h=|
|-----------------------||-----------------|
|-----------------------||o----------------|
|-----------------------||-----------------|


             Bm/D   N.C.
  E E Q  E E Q   4x E E E E E E E E
|---5----5-5-7---||-8p5-7p5-8p5-7p5-|
|---5-7--5-5-7--o||-----------------|
|-6---7--6-6-7---||-----------------|
|----------------||-----------------|
|---------------o||-----------------|
|----------------||-----------------|


                                |--3--|
  E E E E E E E E   Q      +Q   E +E  E E E
|-8p5-7p5-8p5-----|-8b10===(8)--8r(8)-5---5-|
|-------------7-x-|-----------------------5-|
|-------------7-x-|---------------------8---|
|-----------------|-------------------------|
|-----------------|-------------------------|
|-----------------|-------------------------|


                      Outro
       D.S. al Coda &
                       N.C.
  E E E E E E E E      E E   +Q   E E E E
|-------------------||------------5-------|
|---5---5-----------||------------5-------|
|-7-5-6-5-0-0S1-1/--||-0-7b9-(7)----8-7p5-|
|---------0-0S1-1/--||-0------------------|
|-------------------||--------------------|
|-------------------||--------------------|


                     Freely Q=190
                     TP
                                  |-3-|
  E E E E E E E E    Q    E  S  S E E E  S S S S
|-------------6----|-9/--11-----------------------|
|-------0---6------|--------13-13-----------------|
|-7p5-----5-----8/-|--------------9s6s8\-7p5---5--|
|-----7------------|-------------------------7----|
|------------------|------------------------------|
|------------------|------------------------------|


                                                              ~~~~
  |-3-| |-3-| |-3-| |-3-|   |-3-|          |--3--|
  E E E E E E E E E E E E   E E E +E  +E   E  E  E      +E   +E
|---------------------5-5-|-----5-(5)-(5)-/8h10-10b12==(10)-(10)-|
|-----------------5-8-----|---5----------------------------------|
|-8p7p5-7p5---5-7---------|-7------------------------------------|
|-----------7-------------|--------------------------------------|
|-------------------------|--------------------------------------|
|-------------------------|--------------------------------------|


 ~~~~~~~~~~~~~
          |--3---|  |-3-|
   +Q    +E    E E  E E E E E
|-(10)--(10)r-10p8-10p8-0-------|
|-------------------------------|
|-------------------------5s7\--|
|-------------------------------|
|-------------------------------|
|-------------------------------|


                  |-3-| |-3-|   |3| |-3-|         |-3-|
  S S S S S S S S E E E E E E   E Q E E E S S S S E E E
|-----------------------------|---5-------5-5---5-------|
|---------------------------5-|-8-5---5-8-5-5-5---------|
|-5-5---5-7h8p7p5-5-5---5-7---|-----7-------------8p7p6-|
|-----7---------------7-------|-------------------------|
|-----------------------------|-------------------------|
|-----------------------------|-------------------------|


                  |-3-|
  S S S S S S S S E E E S S S S
|--------------------------------|
|--------------------------------|
|-6-----5-7h8p7p5-x-5---------7--|
|---x-7---------------7-7-7-7----|
|--------------------------------|
|--------------------------------|


       |-3--|
  E E +E  E E +Q   Q    q  E E +H       Q  E E +Q     +E  E   W
|---------------------|---------------|---------------------|------|
|---------------------|---------------|---------------------|------|
|---------------------|------0-(0)----|---------------------|------|
|-7-5-(5)---5-(5)-----|------0-(0)----|---------------------|------|
|---------7--------5--|-4-------------|---------------------|------|
|---------------------|---------------|------8-(8)b9--(8)-0-|------|


  A5
  H.      E +E    E E E +E  E E +Q     +H     +E  e Q
|---------------|--------------------|-----------------*|
|---------------|--------------------|-----------------*|
|-2-------2-(2)-|-2-2-2-(2)-2-2-(2)--|-(2)----(2)-2----*|
|-2-------2-(2)-|-2-2-2-(2)-2-2-(2)--|-(2)----(2)-2----*|
|-0-------0-(0)-|-0-0-0-(0)-0-0-(0)--|-(0)----(0)-0----*|
|---------------|--------------------|-----------------*|


Duration Legend
---------------
W - whole; H - half; Q - quarter; E - 8th; S - 16th; T - 32nd; X - 64th; a - acciaccatura
+ - note tied to previous; . - note dotted; .. - note double dotted
Uncapitalized letters represent notes that are staccato (1/2 duration)
Irregular groupings are notated above the duration line
Duration letters will always appear directly above the note/fret number it represents the
duration for.  Duration letters with no fret number below them represent rests.  Multi-
bar rests are notated in the form Wxn, where n is the number of bars to rest for.  Low
melody durations appear below the staff

Tablature Legend
----------------
 h   - hammer-on
 p   - pull-off
 b   - bend
 pb  - pre-bend
 r   - bend release (if no number after the r, then release immediately)
 /\  - slide into or out of (from/to "nowhere")
 s   - legato slide
 S   - shift slide
  - natural harmonic
[n]  - artificial harmonic
n(n) - tapped harmonic
 ~   - vibrato
 tr  - trill
 T   - tap
 TP  - trem. picking
 PM  - palm muting
\n/  - tremolo bar dip; n = amount to dip
 \n  - tremolo bar down
 n/  - tremolo bar up
/n\  - tremolo bar inverted dip
 =   - hold bend; also acts as connecting device for hammers/pulls
 <>  - volume swell (louder/softer)
 x   - on rhythm slash represents muted slash
 o   - on rhythm slash represents single note slash

Misc Legend
-----------
 |  - bar
||  - double bar
||o - repeat start
o|| - repeat end
*|  - double bar (ending)
 :  - bar (freetime)
 $  - Segno
 &  - Coda
Tempo markers -  = BPM(8/16=s8/s16), where s8 = swing 8ths, s16 = swing 16ths
Добавлено: 29.06.2015
Другие материалы по этой песне:

Страница создана 22.02.2012
http://primanota.ru/ten-years-after/im-going-home-live-chords.htm
Привет, Гость.
Предлагаем пройти революционный курс по гитаре.
Подарок от PrimaNota.Ru, забирай!