PrimaNota.ru - самый крупный в мире бесплатный архив песенных текстов, аккордов, табулатур и нот


Ten Years After - I Cant Keep From Cryin Sometimes - таба, видео

Регистрация Запомнить меня
Войти через:  Facebook Google Twitter Vk Yandex Mail.ru

Ten Years After - I Cant Keep From Cryin Sometimes - таба, видео

Печатать
Просмотров: 183
Уроки эстрадного вокала в Санкт-Петербурге
I Can't Keep From Cryin' Sometimes - Ten Years After - Recorded Live

Tabbed By: TheHeartbreaker

Sadly, I do not own the first Ten Years After album on which this is on. I do, however,
own this Recorded Live album in which they play this song. The live version consists of
a jam that lasts over ten minutes, that I knew would take too much time to tab out would
be too much for anyone to want to learn.

I'm guessing that the live version is fairly close to the recorded version, so this
should tab should work well with both. The only differences between the two (besides
the ten minute jam) may be that the intro is longer or there are some fills that are
put in the live version that aren't on the recorded version.

Enjoy.

Guitar: Alvin Lee

Intro

e|---------------|-------|---------------|-------|
B|---------------|/3-2-2-|---------------|/3-2-2-|
G|---------------|/4-2-2-|---------------|/4-2-2-|
D|---------------|-------|---------------|-------|
A|2--------------|-------|2--------------|-------|
E|--0-(let ring)-|-------|--0-(let ring)-|-------|

e|---------------------|-3-----|----------------|-3-----|
B|---------------------|-3-2-2-|----------------|-3-2-2-|
G|---------------------|---2-2-|----------------|---2-2-|
D|----0h2--------------|-------|----------------|-------|
A|0h2------------------|-------|-2--------------|-------|
E|--------0-(let ring)-|-------|---0-(let ring)-|-------|

e|-3p0---0-(let ring)-|-------|-----|---------|
B|-----3--------------|/3-2-2-|-----|-/3-2-2--|
G|--------------------|/4-2-2-|-----|-/4-2-2--|
D|--------------------|-------|-----|---------|
A|--------------------|-------|-2---|---------|
E|--------------------|-------|---0-(let ring)|

e|---------------------|-3-----|----------------|-3-----|
B|---------------------|-3-2-2-|----------------|-3-2-2-|
G|---------------------|---2-2-|----------------|---2-2-|
D|----0h2--------------|-------|----------------|-------|
A|0h2------------------|-------|-2--------------|-------|
E|--------0-(let ring)-|-------|---0-(let ring)-|-------|


Throughout the verses repeat…

e|---------------|-------|              
B|---------------|/3-2-2-|
G|---------------|/4-2-2-|
D|---------------|-------|
A|2--------------|-------|
E|--0-(let ring)-|-------|       

And…

e|---------------------|-3-----|----------------|-3-----|
B|---------------------|-3-2-2-|----------------|-3-2-2-|
G|---------------------|---2-2-|----------------|---2-2-|
D|----0h2--------------|-------|----------------|-------|
A|0h2------------------|-------|-2--------------|-------|
E|--------0-(let ring)-|-------|---0-(let ring)-|-------|

And also occasionally playing…

e|---------------|/6-5-5-|
B|---------------|/7-5-5-|
G|---------------|-------|
D|---------------|-------|
A|2--------------|-------|
E|--0-(let ring)-|-------|

After each “verse” is a “chorus” where the guitar does not play. Instead, the drums
and piano build up. However, right before the going back into the verses, the guitar
will play…

e|------|-3-|           
B|------|-3-|
G|------|-2-|
D|------|---|
A|2x----|---|
E|---0x-|---|

The main riff will start back up with the verses, or else the occasion arises where
the following will play…
e|---------5---2-------2/3/2-|
B|------/3-5-4-2-2/3-4-2/3/2-|
G|------/4---4---2/3-4-------|
D|---------------------------|
A|-----2---------------------|
E|-2h4-----------------------|

After this, everything repeats itself until the long jam that ensues. After it is
over, this is played again until the songs ends.         

(let ring) = Let Ring
/ = Slide Up or Slide Down
x = Palm Mute
h = Hammer-On
Добавлено: 03.05.2012
Другие материалы по этой песне:
  • Аккорды и текст

Страница создана 03.05.2012
http://primanota.ru/ten-years-after/i-cant-keep-from-cryin-sometimes-chords.htm
Привет, Гость.
Предлагаем пройти революционный курс по гитаре.
Подарок от PrimaNota.Ru, забирай!