PrimaNota.ru - самый крупный в мире бесплатный архив песенных текстов, аккордов, табулатур и нот


Ten More Years - Sudden Turns - таба, видео

Регистрация Запомнить меня
Войти через:  Facebook Google Twitter Vk Yandex Mail.ru

Ten More Years - Sudden Turns - таба, видео

Печатать
Просмотров: 58
Ten More Years - Sudden Turns

www.tenmoreyearsband.com
www.reverbnation.com/tenmoreyears

Key
^   = hammer/pull
/// = high-speed picking
/ = slide
x = percussive palm mute
X' = slight palm mute
X" = heavy palm mute
FINGER TAPPING
T   = tapped note



Intro (Clean Guitar)
C#------------\--------------\--------------\----------------------]
G#------------\--------------\--------------\----------------------]
E ------5-----\--------7-----\-------7------\--10-------9-------7--]
B ---3------3-\-----5------5-\----7---------\------7-------7-------]
F#-1----------\-3------------\-5----------5-\--------5--------5----]
B ------------\--------------\--------------\----------------------]

                          (dist. guitar comes in)
C#------------\---------------\---------------\--------------------]
G#------------\---------------\---------------\--------------------]
E ------5-----\--------7------\---------------\--------------------]
B ---3------3-\-----5---------\-5-------------\----3'--5'--3'--5'--]
F#-1----------\-3-------------\-5-------------\----3'--5'--3'--5'--]
B ------------\------------xx-\-5-------------\----3'--5'--3'--5'--]




Intro (Lead)

C#------------------\----------------\-------------------\---------------]
G#------------------\----------------\-------------------\---------------]
E -14---------------\-12---------/8--\--8/10--10---------\---------------]
B ------------------\----------------\-------------------\---------------]
F#------------------\----------------\-------------------\---------------]
B ------------------\----------------\-------------------\---------------]


C#------------------\----------------\-------------------\---------------]
G#------------------\----------------\-------------------\---------------]
E ---------7--7-----\--12/10-9--7----\--7/9--9--9/10--7--\---------------]
B ------7--------7--\----------------\-------------------\---------------]
F#------------------\----------------\-------------------\---------------]
B ------------------\----------------\-------------------\---------------]


C#------------------\----------------\-------------------\---------------]
G#------------------\----------------\-------------------\---------------]
E -14---------------\--12-------10---\--12--14--15/14----\---------------]
B ------------------\----------------\-------------------\---------------]
F#------------------\----------------\-------------------\---------------]
B ------------------\----------------\-------------------\---------------]


C#------------------\----------------\-------------------\---------------]
G#------------------\----------------\-------------------\---------------]
E ------------7--7--\-12--10/9--9-9--\-9/10--7-----------\---------------]
B ------------------\----------------\-------------------\---------------]
F#------------------\----------------\-------------------\---------------]
B ------------------\----------------\-------------------\---------------]




Chorus/Intro
C#--------------\-----------------\----------------\-----------------------]
G#--------------\-----------------\----------------\-----------------------]
E --------------\-5---------------\-3--------------\-----------------------]
B -0------------\-5---------------\-3--------------\----------3--5--3--5---]
F#-0------------\-3---------------\-1--------------\----------3--5--3--5---]
B -0------------\-----------------\----------------\----------3--5--3--5---]

C#--------------\-----------------\----------------\-----------------------]
G#--------------\-----------------\----------------\--11------11------11---]
E --------------\-5---------------\----------------\-----10------10--------]
B -0------------\-5---------------\-8------------8-\--------8-------8------]
F#-0------------\-3---------------\-8--------------\-----------------------]
B -0------------\-----------------\-8--------------\-----------------------]

C#--------------\-----------------\----------------\-----------------------]
G#--------------\-----------------\----------------\-----------------------]
E --------------\-5---------------\-3--------------\-----------------------]
B -0------------\-5---------------\-3--------------\----------3--5--3--5---]
F#-0------------\-3---------------\-1--------------\----------3--5--3--5---]
B -0------------\-----------------\----------------\----------3--5--3--5---]

C#--------------\-----------------\----------------\-----------------------]
G#--------------\-----------------\----------------\-----------------------]
E --------------\-5---------------\-3--------------\-----------------------]
B -0------------\-5---------------\-3--------------\----------3--5--3--5---]
F#-0------------\-3---------------\-1--------------\----------3--5--3--5---]
B -0------------\-----------------\----------------\----------3--5--3--5---]





Verse
C#------------------\-----------------\-----------------\------------------]
G#------------------\-----------------\-----------------\------------------]
E ------------------\-----------------\-----------------\------------------]
B ------------------\-----------------\-----------------\------------------]
F#---5-----5--------\----5----5-------\----5----5-------\----5----5--------]
B -0'---0--------0'-\-0'----0------0'-\-0'----0------0'-\-0'----0-------0'-]

C#----------------\----------------\------------------\--------------------]
G#----------------\----------------\------------------\--------------------]
E ----------------\----------------\------------------\--------------------]
B ----------------\----------------\------------------\--------------------]
F#----3---3-------\----3---3-------\----8----8--------\----5---5--------3--]
B -3'---3------0'-\-3'---3------0'-\-8'----8-------0'-\-5'---5-------3'----]

Play twice during verse.




Prechorus
C#-------------\----------------\----------------\-------------------]
G#-------------\----------------\----------------\-------------------]
E -------5-----\-------7--------\--------7-------\-------------------]
B ----3--------\----5-----------\-----7----------\-------------------]
F#-1-----------\-3-----------0--\--5-------------\-------------------]
B -------------\----------------\----------------\-------------------]

C#-------------\----------------\----------------\-------------------]
G#-------------\----------------\----------------\-------------------]
E -------5-----\-------7--------\----------------\-------------------]
B ----3--------\----5-----------\-5--------------\---3'--5'--3'--5'--]
F#-1---------1-\-3--------------\-5--------------\---3'--5'--3'--5'--]
B -------------\----------------\-5--------------\---3'--5'--3'--5'--]





End of first Chorus.
C#--------------\-----------------]
G#--------------\-----------------]
E --------------\-----------------]
B -0------------\-----------------]
F#-0------------\-----------------]
B -0------------\---0-0-0-0-0-0-0-]




Repeat Verse, Prechorus, and Chorus.



End of second Chorus. into solo.

C#--------------\----------------\-----------------\-----------------]
G#--------------\----------------\-----------------\-----------------]
E --------------\----------------\-----------------\-----------------]
B -0------------\----------------\-----------------\-----------------]
F#-0------------\----------------\-----------------\-----------------]
B -0------------\----------------\-0-0-0-0-0-0-0-0-\-0-0-0-0-0-0-0-0-]




Solo.



Rhythm guitar during solo.
C#-------------\----------------\----------------\----------------------]
G#-------------\----------------\----------------\----------------------]
E -------5-----\-------7--------\--------7-------\----------------------]
B ----3--------\----5-----------\-----7----------\-0-------0-------0----]
F#-1---------1-\-3-----------0--\--5-------------\-0-------0-------0----]
B -------------\----------------\--------------0-\-0-0"-0"-0-0"-0"-0-0"-] x3

C#-------------\----------------\----------------\----------------------]
G#-------------\----------------\----------------\----------------------]
E -------5-----\-------7--------\----------------\----------------------]
B ----3--------\----5-----------\-5--------------\----------3--5--3--5--]
F#-1---------1-\-3--------------\-5--------------\----------3--5--3--5--]
B -------------\----------------\-5--------------\----------3--5--3--5--]x1





Bridge
     I can't change what's.......
C#-------------\----------------\----------------\-----------------------]
G#-------------\----------------\----------------\-----------------------]
E -------5-----\-------7--------\----------------\-----------------------]
B ----3--------\----5-----------\--------3-------\--------5--------------]
F#-1---------1-\-3--------------\-----3----------\-----5-----------------]
B -------------\--------------0-\-3--------------\-5-------------------5-]

C#-------------\----------------\----------------\-----------------------]
G#-------------\----------------\----------------\-----------------------]
E -------5-----\-------7--------\--------7-------\--10--------10/9--9/7--]
B ----3--------\----5-----------\-----7----------\-----------------------]
F#-1---------1-\-3-----------0--\--5-----------8-\--8--8'-8'--8/7---7/5--]
B -------------\----------------\----------------\-----------------------]

C#-------------\----------------\----------------\-----------------------]
G#-------------\----------------\----------------\-----------------------]
E -------5-----\-------7--------\----------------\-----------------------]
B ----3--------\----5-----------\--------3-------\--------5--------------]
F#-1---------1-\-3--------------\-----3----------\-----5-----------------]
B -------------\--------------0-\-3--------------\-5-------------------5-]

C#-------------\----------------\----------------\-----------------------]
G#-------------\----------------\----------------\-----------------------]
E -------5-----\-------7--------\----------------\-----------------------]
B ----3--------\----5-----------\-5--------------\-5'--------------------]
F#-1---------1-\-3--------------\-5--------------\-5'--------------------]
B -------------\----------------\-5--------------\-5'--------------------]


Repeat Chorus


End of last chorus let last chord ring out.
Добавлено: 08.09.2013
Другие материалы по этой песне:
  • Аккорды и текст

Страница создана 08.09.2013
http://primanota.ru/ten-more-years/sudden-turns-chords.htm
Привет, Гость.
Предлагаем пройти революционный курс по гитаре.
Подарок от PrimaNota.Ru, забирай!