PrimaNota.ru - самый крупный в мире бесплатный архив песенных текстов, аккордов, табулатур и нот


Temptations - Shaky Ground - бас-таба, видео

Регистрация Запомнить меня
Войти через:  Facebook Google Twitter Vk Yandex Mail.ru

Temptations - Shaky Ground - бас-таба, видео

Печатать
Просмотров: 95
-------------------------------------------------------------------------------
                             SHAKY GROUND - Temptations
-------------------------------------------------------------------------------
Tabbed by: WibbleWobble
E-mail: organisedchaos@talktalk.net

Tuning: standard EADG

Oh wow.....the great bassline to Shaky Ground...right...not actually too hard but a lot 
of slapping going on. And improv. And timing. Well here goes..

INTRO play this four times
G|---------------------------------------------------------------------------|
D|---------------------------------------------------------------------------|
A|-5-5-5---5h3---------------------------------------------------------------|
E|---------------5h3--0------------------------------------------------------|

MAIN RIFF something like:
G|---------------------------------------------------------------------------|
D|--------------12p--12p--12h14----------------------------------------------|
A|--------------------------------5h3--0~------------------------------------|
E|-0-0--0-0----------------------------------0-------------------------------|

just before the first chorus (00:40) it goes
G|---6-6-7-8-----------------------------------------------------------------|
D|---------------------------------------------------------------------------|
A|---------------------------------------------------------------------------|
E|---------------------------------------------------------------------------|

CHORUS play this twice
G|-------------------------------------------------------------------6-6-7-8-|
D|--------------------5---------------------------------------5--------------|
A|----7p--4p-4p--5p------7-4-5-5-4-4-5-5-7-7-----7p-4p-4p-5p----7-4----------|
E|-0-------------------------------------------0-----------------------------|

Repeat main riff and run up into the second chorus
Repeat chorus
and play along main riff / chorus that's really about it
Добавлено: 02.11.2013
Вам также может быть интересно:
Другие материалы по этой песне:
  • Аккорды и текст

Страница создана 02.11.2013
http://primanota.ru/temptations/shaky-ground-chords.htm
Привет, Гость.
Предлагаем пройти революционный курс по гитаре.
Подарок от PrimaNota.Ru, забирай!