PrimaNota.ru - самый крупный в мире бесплатный архив песенных текстов, аккордов, табулатур и нот


Temptations - Ball Of Confusion - аккорды и текст, бас-таба, видео

Регистрация Запомнить меня
Войти через:  Facebook Google Twitter Vk Yandex Mail.ru

Temptations - Ball Of Confusion - аккорды и текст, бас-таба, видео

Печатать
Просмотров: 179
Ball Of Confusion
Temptations



From: RageAgnstDMarmot@aol.com
Date: Wed, 21 Nov 2001 18:50:53 EST
Subject: t/temptations/ball_of_confusion.crd

Temptations - Ball Of Confusion
Tab - Rich Jones

Here's the tab to a sweet song by the temptations
Play the main riff with down/up strokes, as noted


Main Riff 
e-|-8--8--8--8--8--8----------------------------|
b-|-8--8--8--8--8--8----------------------------|
g-|-8--8--8--8--8--8----------------------------|
d-|-8--8--8--8--8--8----------------------------|
a-|-10-10-10-10-10-10---------------------------|
e-|-8--8--8--8--8--8--6-8-----------------------|
    d  u  d  u  d  u    hammer

Bridge
e-|---------------------------------------------|
b-|---------------------------------------------|
g-|---------------------------------------------|
d-|---------------------------------------------|
a-|---2-5----3-6----2-5-------------------------|
e-|-3------4------3-----------------------------|

Questions, Comments, Errors
EverStoned@KickAssMovies.com

And The Band Played On


Добавлено: 19.11.2013
Другие материалы по этой песне:
  • Аккорды и текст

Страница создана 11.03.2012
http://primanota.ru/temptations/ball-of-confusion-chords.htm
Привет, Гость.
Предлагаем пройти революционный курс по гитаре.
Подарок от PrimaNota.Ru, забирай!