PrimaNota.ru - самый крупный в мире бесплатный архив песенных текстов, аккордов, табулатур и нот


Tempt - Under My Skin - таба, видео

Регистрация Запомнить меня
Войти через:  Facebook Google Twitter Vk Yandex Mail.ru

Tempt - Under My Skin - таба, видео

Печатать
Просмотров: 115
Intro/Chorus:

Guitar 1
1-----------------------------   
2-----------------------------      
3--7---3---5------5------5-5--      
4--7---3---5---x--5--x-x-5-5--      
5--5---1---3---x--3--x-x-3-3--    
6----------------------------- X3  

Guitar 2
1-------------------------------------------------------------
2----------15---------11-----------13--------13--------13-----
3------14---------10-----------12--------12---------12--------
4--12----------8-----------10--------10---------10--------10--
5-------------------------------------------------------------
6-------------------------------------------------------------

Guitar 1
1----------------------
2----------------------
3----------------------
4--3--3-3---3-3-3-3/5--
5--3--3-3---3-3-3-3/5--
6--1--1-1---1-1-1-1/3--


Verse:
1------------------------------------------------------------------------------------
2------------------------------------------------------------------------------------
3------------------------------------------------------------------------------------
4--0--0--0--0------------------------------------------------------------------------
5--0--0--0--0--7--0--0--8--0--0--0--0--0--0--3-2-0--0--0--7--0--0--8--0--0--0--8/10--
6--0--0--0--0--7--0--0--8--0--0--0--0--0--0--3-2-0--0--0--7--0--0--8--0--0--0--8/10-- X2

Pre Chorus:
1---------------------------------------------------------------------
2---------------------------------------------------------------------
3------------------2-2-2-2-2-2-2-2--3-3-3-3-3-3-3-3--5-5-5-5-5-5-5-5--
4------------------2-2-2-2-2-2-2-2--3-3-3-3-3-3-3-3--5-5-5-5-5-5-5-5--
5-5-5-5-5-5-5-5-5--0-0-0-0-0-0-0-0--1-1-1-1-1-1-1-1--3-3-3-3-3-3-3-3--
6-5-5-5-5-5-5-5-5-----------------------------------------------------


Chorus

Verse

Pre Chorus

Bridge:
1-----------------------------------     ------------------
2-----------------------------------     ------------------
3--2-2-2-2-2-2-2-2--3-3-3-3-3-3-3-3-     -5-5-5-5-5-5-5-5--
4--2-2-2-2-2-2-2-2--3-3-3-3-3-3-3-3-     -5-5-5-5-5-5-5-5--
5--0-0-0-0-0-0-0-0--1-1-1-1-1-1-1-1-     -3-3-3-3-3-3-3-3--
6----------------------------------- X3  ------------------
Добавлено: 12.08.2015
Другие материалы по этой песне:
  • Аккорды и текст

Страница создана 12.08.2015
http://primanota.ru/tempt/under-my-skin-chords.htm
Привет, Гость.
Предлагаем пройти революционный курс по гитаре.
Подарок от PrimaNota.Ru, забирай!