PrimaNota.ru - самый крупный в мире бесплатный архив песенных текстов, аккордов, табулатур и нот


Teminite - Evolution - таба, видео

Регистрация Запомнить меня
Войти через:  Facebook Google Twitter Vk Yandex Mail.ru

Teminite - Evolution - таба, видео

Печатать
Просмотров: 45
-------------------------------------------------------------------------------
                             "EVOLUTION (SYNTH COVER)" - TEMINITE
-------------------------------------------------------------------------------
Tabbed by: TYLER WELLS
E-mail: BTBAM13@YAHOO.COM

Tuning: STANDARD

e|--12/14-12--------------------------------------------------------------|
B|------------14--12-14---------------------------------------------------|
G|----------------------14-13-11----11--14--14/16\14-13-14-13-11----11----|
D|-------------------------------14------------------------------14-------|
A|------------------------------------------------------------------------|
E|------------------------------------------------------------------------|

e|-----------------12/14-12-----------16-12-------------------------------|
B|---------------------------14-12-14-------12-----------10/12\10-9-10-9--|
G|-----------11--------------------------------13-----13------------------|
D|--14-11-14--------------------------------------14----------------------|
A|------------------------------------------------------------------------|
E|------------------------------------------------------------------------|

e|-------------------------2ND PART---------------------------------------|
B|-11-9-11-9----9-11-----------------12/14--12----12-14-------------------|
G|-----------11-------X2-----------------------14-------14-11-13----------|
D|---------------------------------------------------------------14-11----|
A|------------------------------------------------------------------------|
E|------------------------------------------------------------------------|

e|-----------------14-12----12----------------------------------19-21-12--|
B|--------------14-------14----14-12-14-12-------------14-15-17-----------|
G|--14-11----14----------------------------14-13-14-16--------------------|
D|--------11--------------------------------------------------------------|
A|------------------------------------------------------------------------|
E|------------------------------------------------------------------------|

e|--14-9-12-7-9-5---5--------------------5-9-14-9-5--------X--X--X--X-----|
B|----------------9---9-7-7-5-7--------7------------7------X--X--X--X-----|
G|-----------------------------------6----------------6----11-11-13-13----|
D|---------------------------------7--------------------7--X--X--X--X-----|
A|-------------------------------9-------------------------9--9--11-11----|
E|---------------------------------------------------------X--X--X--X-----|

e|-X--X--X--X--X--X--X--X--X--X--X--X--X--X--X--X--X--X--X--X--X--X--X--X--X--X--X--X-X-----|
B|-X--X--X--X--X--X--X--X--X--X--X--X--X--X--X--X--X--X--X--X--X--X--X--X--X--X--X--X-X-----|
G|-14-14-16-16-11-11-13-13-14-14-16/18\16\14-16-16-18-18-21-21-11-11-14-13-11-9--11-9-6-----|
D|-X--X--X--X--X--X--X--X--X--X--X--X--X--X--X--X--X--X--X--X--X--X--X--X--X--X--X--X-X-----|
A|-12-12-14-14-9--9--11-11-14-14-14/16\14\12-14-14-16-16-19-19-9--9--12-11-9--7--9--7-4-----|
E|-X--X--X--X--X--X--X--X--X--X--X--X--X--X--X--X--X--X--X--X--X--X--X--X--X--X--X--X-X-----|



************************************

| /   slide up
| \   slide down
| h   hammer-on
| p   pull-off
| ~   vibrato
| +   harmonic
| x   Mute note
| b   Bend
| pb  Pre-bend
| br  Bend release
| pbr Pre-bend release
| brb Bend release bend

************************************
Добавлено: 04.05.2016
Другие материалы по этой песне:
  • Аккорды и текст

Страница создана 04.05.2016
http://primanota.ru/teminite/evolution-chords.htm
Привет, Гость.
Предлагаем пройти революционный курс по гитаре.
Подарок от PrimaNota.Ru, забирай!