PrimaNota.ru - самый крупный в мире бесплатный архив песенных текстов, аккордов, табулатур и нот


Tellison - Get On - таба, видео

Регистрация Запомнить меня
Войти через:  Facebook Google Twitter Vk Yandex Mail.ru

Tellison - Get On - таба, видео

Печатать
Просмотров: 112
Уроки эстрадного вокала в Санкт-Петербурге
-------------------------------------------------------------------------------
                             GET ON - Tellison
-------------------------------------------------------------------------------
Tabbed by: felixwright162
E-mail: felixwright162@gmail.com

I love this song so decided to have a haphazard go at tabbing it; if anything is wrong drop me an email!

Tuning: Drop D

e|---------------------------------------------------------------------------|
B|---------------------------------------------------------------------------|
G|-11-11-12-11-14-12-11----6----------11-11-12-11-14-12-11----6-7-6----4-----|
D|-0--0--0--0--0--0--0-----7----------0-0-0-0-0-0-0--0--0-----7-7-7----5-----| X2  INTRO
A|---------------------------------------------------------------------------|
D|-------------------------7----------------------------------7-7-7----5-----|

e|---------------------------------------------------------------------------|
B|---------------------------------------------------------------------------|
G|---------------------------------------------------------------------------|
D|-0000-0000-0000-999-5555-5555-5555-----------------------------------------|     VERSE
A|-0000-0000-0000-999-5555-5555-5555-5757------------------------------------|
D|-0000-0000-0000-999-5555-5555-5555-5757------------------------------------|

e|-----------------------------------XX--------------------------------------|
B|-----------------------------------XX--------------------------------------|
G|-----------------------------------XX--------------------------------------|
D|-0000-0000-0000-999-5555-5555-5555-XX--------------------------------------|
A|-0000-0000-0000-999-5555-5555-5555-XX--------------------------------------|
D|-0000-0000-0000-999-5555-5555-5555-XX--------------------------------------|

e|---------------------------------------------------------------------------|
B|---------------------------------------------------------------------------|
G|---------------------------------------------------------------------------|
D|-0000-0000-0000-999-5555-5555-5555-----------------------------------------|
A|-0000-0000-0000-999-5555-5555-5555-5757------------------------------------|
D|-0000-0000-0000-999-5555-5555-5555-5757------------------------------------|

e|---------------------------------------------------------------------------|
B|---------------------------------------------------------------------------|
G|---------------------------------------------------------------------------|
D|-0000-0000-0000-999-5555-5555-5555-----------------------------------------|    
A|-0000-0000-0000-999-5555-5555-5555-22-44-55----------22-44-55--------------|
D|-0000-0000-0000-999-5555-5555-5555----------66666666----------55555555-----|

e|-------------------------------------------------------------------------------------|
B|-------------------------------------------------------------------------------------|
G|--7777-7777-7777-77----7777-7777-7777-77---------------------------------------------|
D|--7777-7777-7777-7777--7777-7777-7777-7777--9999-9999-9999-99912--5555-5555-5555-55--|      CHORUS
A|--5555-5555-5555-5577--5555-5555-5555-5577--9999-9999-9999-99912--5555-5555-5555-55--|
D|-------------------77--5555-5555-5555-5577--9999-9999-9999-99912--5555-5555-5555-55--|

e|---------------------------------------------------------------------------|
B|---------------------------------------------------------------------------|
G|-11-11-12-11-14-12-11----6----------11-11-12-11-14-12-11----6-7-6----4-----|
D|-0--0--0--0--0--0--0-----7----------0-0-0-0-0-0-0--0--0-----7-7-7----5-----| X2
A|---------------------------------------------------------------------------|
D|-------------------------7----------------------------------7-7-7----5-----|

VERSE X2 (Bass only)


e|---------------------------------------------------------------------------|
B|---------------------------------------------------------------------------|
G|---------------------------------------------------------------------------|
D|---------------------------------------------------------------------------|
A|--22-44-55----------22-44-55-----------------------------------------------|
D|-----------66666666----------55555555--------------------------------------|

e|--------------------------------------------------------------------------------------|
B|--------------------------------------------------------------------------------------|
G|--7777-7777-7777-77----7777-7777-7777-77----------------------------------------------|
D|--7777-7777-7777-7777--7777-7777-7777-7777--9999-9999-9999-991212--5555-5555-5555-55--|      CHORUS
A|--5555-5555-5555-5577--5555-5555-5555-5577--9999-9999-9999-991212--5555-5555-5555-55--|
D|-------------------77--5555-5555-5555-5577--9999-9999-9999-991212--5555-5555-5555-55--|

e|----------12----------12----------12----------12--------------------------------------|
B|----------10----------10----------10----------10-------7-------7-------7-------7------|
G|----------11----------11----------11----------11-------7-------7-------7-------7------|
D|----------0-----------0-----------0-----------0--------0-------0-------0-------0------|
A|--------------------------------------------------------------------------------------|
D|-12-12-12-12-12-12-12-12-12-12-12-12-12-12-12-12-9-9-9-9-9-9-9-9-9-9-9-9-9-9-9-9------|

e|--------------------------------------------------------------------------------------|
B|-------3-------3-------3-------3-------0-------0-------0-------0----------------------|
G|-------4-------4-------4-------4-------1-------1-------1-------1--------7--------7----|
D|-------0-------0-------0-------0-------0-------0-------0-------0--------7--------7----|
A|---------------------------------------------------------------------------------5----|
D|-5-5-5-5-5-5-5-5-5-5-5-5-5-5-5-5-2-2-2-2-2-2-2-2-2-2-2-2-2-2-2-2--------6--------5----|

e|--------------------------------------------------------------------------------------|
B|--------------------------------------------------------------------------------------|
G|--7777-7777-7777-77----7777-7777-7777-7777--7777-7777-7777-77----7777-7777-7777-7777--|
D|--7777-7777-7777-7777--7777-7777-7777-7777--7777-7777-7777-7777--7777-7777-7777-7777--|      PRE-CHORUS
A|--5555-5555-5555-5577--5555-5555-5555-5555--5555-5555-5555-5577--5555-5555-5555-5555--|
D|-------------------77--5555-5555-5555-5555-------------------77--5555-5555-5555-5555--|

(DRUM SOLO)

e|--------------------------------------------------------------------------------------|
B|--------------------------------------------------------------------------------------|
G|--7777-7777-7777-77----7777-7777-7777-77----------------------------------------------|
D|--7777-7777-7777-7777--7777-7777-7777-7777--9999-9999-9999-991212--5555-5555-5555-55--|  X2    CHORUS
A|--5555-5555-5555-5577--5555-5555-5555-5577--9999-9999-9999-991212--5555-5555-5555-55--|
D|-------------------77--5555-5555-5555-5577--9999-9999-9999-991212--5555-5555-5555-55--|

e|----------------------------------------------------------------------------|
B|----------------------------------------------------------------------------|
G|--7-------------------------------------------------------------------------|
D|--7-------------------------------------------------------------------------|    End On
A|--5-------------------------------------------------------------------------|
D|--0-------------------------------------------------------------------------|


************************************

| /   slide up
| \   slide down
| h   hammer-on
| p   pull-off
| ~   vibrato
| +   harmonic
| x   Mute note
| b   Bend
| pb  Pre-bend
| br  Bend release
| pbr Pre-bend release
| brb Bend release bend

************************************
Добавлено: 12.06.2016
Другие материалы по этой песне:
  • Аккорды и текст

Страница создана 12.06.2016
http://primanota.ru/tellison/get-on-chords.htm
Привет, Гость.
Предлагаем пройти революционный курс по гитаре.
Подарок от PrimaNota.Ru, забирай!