PrimaNota.ru - самый крупный в мире бесплатный архив песенных текстов, аккордов, табулатур и нот


Television - 1880 Or S O - таба, видео

Регистрация Запомнить меня
Войти через:  Facebook Google Twitter Vk Yandex Mail.ru

Television - 1880 Or S O - таба, видео

Печатать
Просмотров: 104
-------------------------------------------------------------------------------
                             1880 Or So - Television
-------------------------------------------------------------------------------
Tabbed by: Jeff


intro/verse gtr 1 (Verlaine)

e|-----------------------------------------------------------------------------|
B|-------------------11----11--9-----------------------------------------------|
G|-----10--10--8---------------------------------------------------------------|
D|------------------------------------ repeat until "she speaks fine" ---------|
A|-----------------------------------------------------------------------------|
E|--9-------------9-----9------------------------------------------------------|

then

e|---------6h9--9--6--------6h9--9--6----------------------------------------|
B|--7---7-------------7~~--------------7-------------11--11--9---------------|
G|---------------------------------------10--10--8-------------10-10-8\6--6--|
D|---------------------------------------------------------------------------|
A|---------------------------------------------------------------------------|
E|-------------------------------------------------9---9---------------------|

gtr 2 fills (Lloyd)

e|---------------------------------------------------------------------------|
B|-----------4-----------------------------4-----------------4---------------|
G|---------4--3--------------------------4--3--------------4--3--------------|
D|-------3------4------------(x3)------3------4-4--------3------4------------|
A|---4h6----------4--6--8----------4h6---------------4h6----------4--6--8----|
E|---------------------------------------------------------------------------|

C#
O rose of my heart, can't you see
I don't belong to misery
F#
Though she speaks fine with subtle art
C#
Such misery clothes the rose of my heart.

A                     E
Now what I see in the long twilight

E C#
A star falls down

chorus fills
e|---------7h9~~9--7----7h9--9p7\6-------------------------------------------|
B|--5h7~~--------------------------9-----------------------------------------|
G|---------------------------------------------------------------------------|
D|---------------------------------------------------------------------------|
A|---------------------------------------------------------------------------|
E|---------------------------------------------------------------------------|

C#
on a hill so white
On a hill so white.
A face that glows in a golden hue
No-one in this world knows what they do
F#
I take my oath and I make my vow
C#
For the tender things are upon me now.

A                             E
In the fragrance sweet of the evening air
E       C#
I could leave this world quite without a care.

C#
O rose of my heart, the vision dims
The time is brief, now the shadow swims,
F#
A powerful view, a real fine hat
C#
Cause that's for you and that's where that's at.


A                     E
Now what I see in the long twilight

E C#
A star falls down

on a hill so white.
O rose of my heart
O rose of my heart
O rose of my heart.


| /  slide up
| \  slide down
| h  hammer-on
| p  pull-off
| ~  vibrato
| +  harmonic
| x  Mute note
===============================================================================
Добавлено: 06.05.2012
Другие материалы по этой песне:

Страница создана 06.05.2012
http://primanota.ru/television/1880-or-s-o-chords.htm
Привет, Гость.
Предлагаем пройти революционный курс по гитаре.
Подарок от PrimaNota.Ru, забирай!