PrimaNota.ru - самый крупный в мире бесплатный архив песенных текстов, аккордов, табулатур и нот


Television Personalities - This Angry Silence - аккорды и текст, видео

Регистрация Запомнить меня
Войти через:  Facebook Google Twitter Vk Yandex Mail.ru

Television Personalities - This Angry Silence - аккорды и текст, видео

Печатать
Просмотров: 57
Новый альбом группы 'Черный Кузнец' по культовому сериалу 'Сверхъестественное'!
This Angry Silence
Television Personalities
[Intro]

e|-----------------|-----------------|-----------------|-----------------|
B|-----------------|-----------------|-----------------|-----------------|
G|-----------------|-----------------|-----------------|-----------------|
D|-----------------|-----------------|-----------------|-----------------|
A|---------------0-|-1-1-1-1-1-1-1-1-|-----------------|-1-1-1-1-1-1-1-1-|
E|-1-1-1-1-1-1-1---|-----------------|-0-0-0-0-0-0-0-0-|-----------------|


[Verse]

F
I hear my father shouting at my mother
        Bb
In the room next door
Bb                                 
He's always threatening to pack his bags
            C
'Cause he can't take it anymore
F
And my brother's anorexic
                                   Bb
But no one seems to care about the state he's in
Bb
And my sister's in a club, she's a barmaid in a pub
          C
And my mother's full of gin


[Chorus]

Dm       C     Bb       Dm
Can you hear   can you hear           
Dm       C     Bb       C
Can you hear   can 

This angry silence?


[Interlude]

e|-----------------|-----------------|-----------------|-----------------|
B|-----------------|-----------------|-----------------|-----------------|
G|-----------------|-----------------|-----------------|-----------------|
D|-----------------|-----------------|-----------------|-----------------|
A|---------------0-|-1-1-1-1-1-1-1-1-|-----------------|-1-1-1-1-1-1-1-1-|
E|-1-1-1-1-1-1-1---|-----------------|-0-0-0-0-0-0-0-0-|-----------------|


[Verse]

F
I spend the days on my own
               Bb
Writing silly poetry
Bb              
Writing poems for the girl I love
           C
But she doesn't love me
         F
And I'm scared to go out at night
                      Bb
It's not safe on the street
       Bb                                  
And it's hard to disagree in today's society
           C
You can't trust anyone you meet


[Chorus]

Dm       C     Bb       Dm
Can you hear   Can you hear           
Dm       C     Bb       C
Can you hear   Can  

This angry silence?


[Outro]

  F (you can play at the same time)
e|-----------------|-----------------|-----------------|-----------------|
B|-----------------|-----------------|-----------------|-----------------|
G|-----------------|-----------------|-----------------|-----------------|
D|-----------------|-----------------|-----------------|-----------------|
A|---------------0-|-1-1-1-1-1-1-1-1-|-----------------|-1-1-1-1-1-1-1-1-| x3
E|-1-1-1-1-1-1-1---|-----------------|-0-0-0-0-0-0-0-0-|-----------------|


 (F)  Listen, listen, listen     listen   listen       this angry silence
e|-----------------|-----------------|-----------------|-----------------|
B|-----------------|-----------------|-----------------|-----------------|
G|-----------------|-----------------|-----------------|-----------------|
D|-----------------|-----------------|-----------------|-----------------|
A|---------------0-|-1-1-1-1-1-1-1-1-|-----------------|-1-1-1-1-1-1-1-1-| x2
E|-1-1-1-1-1-1-1---|-----------------|-0-0-0-0-0-0-0-0-|-----------------|


 (F)                                                   this angry silence
e|-----------------|-----------------|-----------------|-----------------|
B|-----------------|-----------------|-----------------|-----------------|
G|-----------------|-----------------|-----------------|-----------------|
D|-----------------|-----------------|-----------------|-----------------|
A|---------------0-|-1-1-1-1-1-1-1-1-|-----------------|-1-1-1-1-1-1-1-1-| x3
E|-1-1-1-1-1-1-1---|-----------------|-0-0-0-0-0-0-0-0-|-----------------|

End on F
Добавлено: 17.03.2018
Другие материалы по этой песне:
  • Аккорды и текст

Страница создана 17.03.2018
http://primanota.ru/television-personalities/this-angry-silence-chords.htm
Привет, Гость.
Предлагаем пройти революционный курс по гитаре.
Подарок от PrimaNota.Ru, забирай!