PrimaNota.ru - самый крупный в мире бесплатный архив песенных текстов, аккордов, табулатур и нот


Telephone - Au Coeur De La Nuit - бас-таба, видео

Регистрация Запомнить меня
Войти через:  Facebook Google Twitter Vk Yandex Mail.ru

Telephone - Au Coeur De La Nuit - бас-таба, видео

Печатать
Просмотров: 84
VERSE 1

G|----------------------------------|
D|----------------------------------|
A|-7777777777777777-----------------|X1
E|-----------------8888888888888888-|

G|--------------------------------------------------|
D|--------------------------------------------------|
A|--------------------------------------------------|X1
E|-101010101010101010101010101010105555555588888888-|

G|----------------------------------|
D|----------------------------------|
A|-7777777777777777-----------------|X1
E|-----------------8888888888888888-|

G|--------------------------------------------------|
D|--------------------------------------------------|
A|--------------------------------------------------|X1
E|-101010101010101010101010101010105555555588888888-|

G|----------------------------------|
D|----------------------------------|
A|-7777777777777777-----------------|X1
E|-----------------8888888888888888-|

G|--------------------------------------------------|
D|--------------------------------------------------|
A|--------------------------------------------------|X1
E|-10101010101010101010101010875---5-5-578--8888888-|

G|----------------------------------|
D|----------------------------------|
A|-7777777777777777-----------------|X1
E|-----------------8888888888888888-|

G|--------------------------------------------------|
D|--------------------------------------------------|
A|--------------------------------------------------|X1
E|-10101010101010101010101010875---5-5-578--8888888-|


CHORUS 1

G|----------------------------|
D|----------------------------|
A|----------------------------|X3
E|-33333333555555558-8-88-8-8-|

G|----------------|
D|----------------|
A|----------------|X2
E|-8-83-35----55--|

G|-------------|
D|-------------|
A|-------------|X1
E|-8-/3-/5-/10-|

G|----------------|
D|----------------|
A|----------------|X1
E|-5/10----8-7-5--|

SOLO

G|----------------------------------|
D|----------------------------------|
A|-7777777777777777-----------------|X1
E|-----------------8888888888888888-|

G|--------------------------------------------------|
D|--------------------------------------------------|
A|--------------------------------------------------|X1
E|-101010101010101010101010101010105555555588888888-|

G|----------------------------------|
D|----------------------------------|
A|-7777777777777777-----------------|X1
E|-----------------8888888888888888-|

G|--------------------------------------------------|
D|--------------------------------------------------|
A|--------------------------------------------------|X1
E|-101010101010101010101010101010105555555588888888-|

G|----------------------------------|
D|----------------------------------|
A|-7777777777777777-----------------|X1
E|-----------------8888888888888888-|
VERSE 2

G|----------------------------------|
D|----------------------------------|
A|-7777777777777777-----------------|X1
E|-----------------8888888888888888-|

G|--------------------------------------------------|
D|--------------------------------------------------|
A|--------------------------------------------------|X1
E|-101010101010101010101010101010105555555588888888-|

G|----------------------------------|
D|----------------------------------|
A|-7777777777777777-----------------|X1
E|-----------------8888888888888888-|

G|--------------------------------------------------|
D|--------------------------------------------------|
A|--------------------------------------------------|X1
E|-101010101010101010101010101010105555555588888888-|

G|----------------------------------|
D|----------------------------------|
A|-7777777777777777-----------------|X1
E|-----------------8888888888888888-|

G|--------------------------------------------------|
D|--------------------------------------------------|
A|--------------------------------------------------|X1
E|-10101010101010101010101010875---5-5-578--8888888-|

G|----------------------------------|
D|----------------------------------|
A|-7777777777777777-----------------|X1
E|-----------------8888888888888888-|

G|--------------------------------------------------|
D|--------------------------------------------------|
A|--------------------------------------------------|X1
E|-10101010101010101010101010875---5-5-578--8888888-|


CHORUS 2

G|----------------------------|
D|----------------------------|
A|----------------------------|X3
E|-33333333555555558-8-88-8-8-|

G|----------------|
D|----------------|
A|----------------|X2
E|-8-83-35----55--|

G|-------------|
D|-------------|
A|-------------|X1
E|-8-/3-/5-/10-|

END

G|-----------------------------|
D|-----------------------------|
A|-----------------------------|X3
E|-/33333333555555558-8-88-8-8-|

G|----------------|
D|----------------|
A|----------------|X2
E|-8-83-35----55--|

G|-------------|
D|-------------|
A|-------------|X1
E|-8-/3-/5-/10-|


Добавлено: 07.10.2013
Другие материалы по этой песне:

Страница создана 06.04.2012
http://primanota.ru/telephone/au-coeur-de-la-nuit-chords.htm
Привет, Гость.
Предлагаем пройти революционный курс по гитаре.
Подарок от PrimaNota.Ru, забирай!