PrimaNota.ru - самый крупный в мире бесплатный архив песенных текстов, аккордов, табулатур и нот


Telegraphs - So Cold - таба, видео

Регистрация Запомнить меня
Войти через:  Facebook Google Twitter Vk Yandex Mail.ru

Telegraphs - So Cold - таба, видео

Печатать
Просмотров: 148
Уроки эстрадного вокала в Санкт-Петербурге
Song: So Cold
Artist: Telegraphs
Album: We Were Ghosts

www.telegraphsonline.co.uk
www.myspace.com/telegraphs

Tabbed by: Phillip Rubidge (phil87@ntlworld.com)

Tuning: Standard

Telegraphs guitar players are:

Darren LeWarne
Aung “Gary” Yay

This is only my second tab. A lot of effort went into making it as accurate as 
possible, so hope you like :)


=== Verse 1 ===


Guitar 1


e|---------------------------------------------------------------------------|
B|---------------------------------------------------------------------------|
G|------------------------ Drums and Bass play ------------------------------|
D|---------------------------------------------------------------------------|  
A|---------------------------------------------------------------------------|
E|---------------------------------------------------------------------------|


“… you're cut”


e|---------------------------------------------------------------------------|
B|---------------------17-16-15-17-16-15---17--13--15------------------------|
G|------------------------------------------------------14-------------------|
D|-----------------------------------------------------------12--------------|  
A|---------------------------------------------------------------------------|
E|---------------------------------------------------------------------------|

e|---------------------------------------------------------------------------|
B|--------------------17-16-15-17-16-15-17-----20--22--18~-------------------|
G|---------------------------------------------------------------------------| 
D|---------------------------------------------------------------------------|  
A|---------------------------------------------------------------------------|
E|---------------------------------------------------------------------------|

e|---------------------------------------------------------------------------|
B|---------------------------------------------------------------------------|
G|---------------------- Guitar 2, Drums and Bass play ----------------------|
D|---------------------------------------------------------------------------|
A|---------------------------------------------------------------------------|
E|---------------------------------------------------------------------------|


“… I'm cut”


e|---------------------------------------------------------------------------|
B|--------------17-16-15-17-16-15--17-17-13-13-15-15-------------------------|
G|------------------------------------------------------14-14----------------| 
D|--------------------------------------------------------------12-12--------|  
A|---------------------------------------------------------------------------|
E|---------------------------------------------------------------------------|

e|---------------------------------------------------------------------------|
B|-----------------17-16-15-17-16-15---17-17-18-18-17-17-18-18-17~-----------|
G|---------------------------------------------------------------------------| 
D|---------------------------------------------------------------------------|  
A|---------------------------------------------------------------------------|
E|---------------------------------------------------------------------------|


Guitar 2


e|---------------------------------------------------------------------------|
B|---------------------------------------------------------------------------|
G|------------------------ Drums and Bass play ------------------------------|
D|---------------------------------------------------------------------------|
A|---------------------------------------------------------------------------|
E|---------------------------------------------------------------------------|

e|---------------------------------------------------------------------------|
B|---------------------------------------------------------------------------|
G|------------------- Guitar 1, Drums and Bass play -------------------------|
D|---------------------------------------------------------------------------|
A|---------------------------------------------------------------------------|
E|---------------------------------------------------------------------------|


“But you're not bleeding…”


e|---------------------------------------------------------------------------|
B|---------------------------------------------------------------------------|
G|---------------------------------------------------------------------------| x6
D|---------------------------------------------------------------------------|
A|--------------3-3-3-3-3-3-3-3------6-6-6-6----5-5-5-5----------------------|
E|--------------1-1-1-1-1-1-1-1------4-4-4-4----3-3-3-3----------------------|
PM              . . . . . . . .      . . . .    . . . .


=== Chorus 1 ===


“How could you know…”


Guitar 1


e|---------------------------------------------------------------------------|
B|---------------------------------------------------------------------------|
G|------9--11--12--13---17--15--14-(13)-17--15--15--14-(13)-15--14--14-------| x3
D|---------------------------------------------------------------------------|
A|---------------------------------------------------------------------------|
E|---------------------------------------------------------------------------|

e|---------------------------------------------------------------------------|
B|---------------------------------------------------------------------------|
G|---------------------------------------------------------------------------|
D|---------------3----------5-----------7-----------10~---------x-x----------|
A|---------------3-x8-------5-x8--------7-x8--------10~---------x-x----------|
E|---------------1----------3-----------5-----------8~----------x-x----------|


Guitar 2


e|---------------------------------------------------------------------------|
B|---------------------------------------------------------------------------|
G|---------------7--------10--------5--------3--------2----------------------| x3
D|---------------7-x8-----10-x8-----5-x8-----3-x4-----2-x4-------------------|
A|---------------5--------8---------3--------1--------0----------------------|
E|---------------------------------------------------------------------------|

e|---------------------------------------------------------------------------|
B|---------------------------------------------------------------------------|
G|---------------------------------------------------------------------------|
D|---------------3----------5-----------7-----------10~---------x-x----------|
A|---------------3-x8-------5-x8--------7-x8--------10~---------x-x----------|
E|---------------1----------3-----------5-----------8~----------x-x----------|


=== Verse 2 ===


Guitar 1


e|---------------------------------------------------------------------------|
B|---------------------------------------------------------------------------|
G|---------------------- Guitar 2, Drums and Bass play ----------------------|
D|---------------------------------------------------------------------------|  
A|---------------------------------------------------------------------------|
E|---------------------------------------------------------------------------|


“…with red eyes confess”


e|---------------------------------------------------------------------------|
B|----------------17-16-15-17-16-15--17-17-13-13-15-15-----------------------|
G|-------------------------------------------------------14-14---------------| 
D|--------------------------------------------------------------12-12--------|  
A|---------------------------------------------------------------------------|
E|---------------------------------------------------------------------------|

e|---------------------------------------------------------------------------|
B|-----------------17-16-15-17-16-15---17-17-18-17-18-17~--------------------|
G|---------------------------------------------------------------------------| 
D|---------------------------------------------------------------------------|  
A|---------------------------------------------------------------------------|
E|---------------------------------------------------------------------------|


Guitar 2


e|---------------------------------------------------------------------------|
B|---------------------------------------------------------------------------|
G|------------------------ Drums and Bass play ------------------------------|
D|---------------------------------------------------------------------------|  
A|---------------------------------------------------------------------------|
E|---------------------------------------------------------------------------|


“So this black vision…”


e|---------------------------------------------------------------------------|
B|---------------------------------------------------------------------------|
G|---------------------------------------------------------------------------|
D|---------------------------------------------------------------------------|
A|--------------3-3-3-3-3-3-3-3------6-6-6-6----5-5-5-5----------------------|
E|--------------1-1-1-1-1-1-1-1------4-4-4-4----3-3-3-3----------------------|
PM              . . . . . . . .      . . . .    . . . .

e|---------------------------------------------------------------------------|
B|---------------------------------------------------------------------------|
G|---------------------------------------------------------------------------|
D|---------------------------------------------------------------------------|
A|--------3-3-3-3-3-3-3-3------6-6-6-6----5-5-5-5----3-3-3-3-3-3-3-3---------|
E|--------1-1-1-1-1-1-1-1------4-4-4-4----3-3-3-3----1-1-1-1-1-1-1-1---------|
PM        . . . . . . . .      . . . .    . . . .    . . . . . . . .

e|---------------------------------------------------------------------------|
B|---------------------------------------------------------------------------|
G|---------------------------------------------------------------------------|
D|----- Bass stops briefly --------------------------------------------------|
A|-----------------------------3-3-3-3-3-3-3-3------6-6-6-6----5-5-5-5-------|
E|-----------------------------1-1-1-1-1-1-1-1------4-4-4-4----3-3-3-3-------|
PM                             . . . . . . . .      . . . .    . . . .


=== Chorus 2 ===


“How could you know…”


Guitar 1


e|---------------------------------------------------------------------------|
B|---------------------------------------------------------------------------|
G|------9--11--12--13---17--15--14-(13)-17--15--15--14-(13)-15--14--14-------| x3
D|---------------------------------------------------------------------------|
A|---------------------------------------------------------------------------|
E|---------------------------------------------------------------------------|


Guitar 2


e|---------------------------------------------------------------------------|
B|---------------------------------------------------------------------------|
G|---------------7--------10--------5--------3--------2----------------------| x3
D|---------------7-x8-----10-x8-----5-x8-----3-x4-----2-x4-------------------|
A|---------------5--------8---------3--------1--------0----------------------|
E|---------------------------------------------------------------------------|


=== Bridge ===


“It was my mistake…”


Guitar 1 and 2


e|---------------------------------------------------------------------------|
B|---------------------------------------------------------------------------|
G|----17--17--17---15--15--15---14--14--14--14---15--15---14--14--14--14-----|
D|----x---x---x----x---x---x----x---x---x---x----x---x----x---x---x----x-----| x3
A|----15--15--15---13--13--13---12--12--12--12---13--13---12--12--12--12-----|
E|---------------------------------------------------------------------------|

e|---------------------------------------------------------------------------|
B|---------------------------------------------------------------------------|
G|----19--19--19---17--17--17---19--19--19---17--17--17---19--19--17---------|
D|----x---x---x----x---x---x----x---x---x----x---x---x----x---x---x----------|
A|----17--17--17---15--15--15---17--17--17---15--15--15---17--17--17---------|
E|---------------------------------------------------------------------------|


“IT WAS MY MISTAKE!…”


e|---------------------------------------------------------------------------|
B|---------------------------------------------------------------------------|
G|---------------------------------------------------------------------------| 
D|------------------3--------5--------7--------10----------------------------|
A|------------------3-x8-----5-x8-----7-x8-----10-x8-------------------------|
E|------------------1--------3--------5--------8-----------------------------|

e|---------------------------------------------------------------------------|
B|---------------------------------------------------------------------------|
G|---------------------------------------------------------------------------| 
D|------------------3--------5--------7--------10----------------------------|
A|------------------3-x8-----5-x8-----7-x8-----10-x16------------------------|
E|------------------1--------3--------5--------8-----------------------------|


“How could you know…”


e|---------------------------------------------------------------------------|
B|---------------------------------------------------------------------------|
G|--7-7-7-7-7-7-7-7-10-10-10-10-10-10-10-10-5-5-5-5-5-5-5-5-3-3-3-3-2-2-2-2--|
D|--7-7-7-7-7-7-7-7-10-10-10-10-10-10-10-10-5-5-5-5-5-5-5-5-3-3-3-3-2-2-2-2--|
A|--5-5-5-5-5-5-5-5-8--8--8--8--8--8--8--8--3-3-3-3-3-3-3-3-1-1-1-1-0-0-0-0--|
E|---------------------------------------------------------------------------|
PM  . . .   . .   . .  .  .     .  .     .  . . .   . .   . . . .   . . .   

e|---------------------------------------------------------------------------|
B|---------------------------------------------------------------------------|
G|-------7-7-7-7-7-7-7-7-10-10-10-10-10-10-10-10-5-5-5-5-5-5-5-5---3~--------|
D|-------7-7-7-7-7-7-7-7-10-10-10-10-10-10-10-10-5-5-5-5-5-5-5-5---3~--------|
A|-------5-5-5-5-5-5-5-5-8--8--8--8--8--8--8--8--3-3-3-3-3-3-3-3---1~--------|
E|---------------------------------------------------------------------------|
PM       . . .   . .   . .  .  .     .  .     .  . .


=== Chorus 3 ===


“How could you know…”


Guitar 1


e|---------------------------------------------------------------------------|
B|---------------------------------------------------------------------------|
G|------9--11--12--13---17--15--14-(13)-17--15--15--14-(13)-15--14--14-------| x4
D|---------------------------------------------------------------------------|
A|---------------------------------------------------------------------------|
E|---------------------------------------------------------------------------|

e|---------------------------------------------------------------------------|
B|--------------/17-16-15-17-16-15---17-17-13-13-15-15-----------------------|
G|------------------------------------------------------14-14----------------|
D|-------------------------------------------------------------12------------|  
A|---------------------------------------------------------------------------|
E|---------------------------------------------------------------------------|

e|---------------------------------------------------------------------------|
B|-----------------17-16-15-17-16-15--------20-20-20---22-22-22~-------------|
G|---------------------------------------------------------------------------|
D|---------------------------------------------------------------------------|  
A|---------------------------------------------------------------------------|
E|---------------------------------------------------------------------------|

e|---------------------------------------------------------------------------|
B|---------------17-16-15-17-16-15---17-17-13-13-15-15-----------------------|
G|------------------------------------------------------14-14----------------|
D|-------------------------------------------------------------12------------|  
A|---------------------------------------------------------------------------|
E|---------------------------------------------------------------------------|

e|---------------------------------------------------------------------------|
B|-----------------17-16-15-17-16-15--------20-20-20---22-22-22~-------------|
G|---------------------------------------------------------------------------|
D|---------------------------------------------------------------------------|  
A|---------------------------------------------------------------------------|
E|---------------------------------------------------------------------------|


Guitar 2


e|---------------------------------------------------------------------------|
B|---------------------------------------------------------------------------|
G|---------------7--------10--------5--------3--------2----------------------| x6
D|---------------7-x8-----10-x8-----5-x8-----3-x4-----2-x4-------------------|
A|---------------5--------8---------3--------1--------0----------------------|
E|---------------------------------------------------------------------------|


=== Ending ===


“IT WAS MY MISTAKE…”


Guitar 1


e|---------------------------------------------------------------------------|
B|---------------------------------------------------------------------------|
G|----17--17--17---15--15--15---14--14--14--14---15--15---14--14--14--14-----|
D|----x---x---x----x---x---x----x---x---x---x----x---x----x---x---x----x-----| x3
A|----15--15--15---13--13--13---12--12--12--12---13--13---12--12--12--12-----|
E|---------------------------------------------------------------------------|

e|---------------------------------------------------------------------------|
B|---------------------------------------------------------------------------|
G|---------17--17--17---15--15--15---14--14------15------------17~-----------|
D|---------x---x---x----x---x---x----x---x-------x--x16--------x-------------|
A|---------15--15--15---13--13--13---12--12------13------------15~-----------|
E|---------------------------------------------------------------------------|


Guitar 2


e|---------------------------------------------------------------------------|
B|---------------------------------------------------------------------------|
G|---------------------------------------------------------------------------| 
D|------------------3--------5--------7--------10----------------------------|
A|------------------3-x8-----5-x8-----7-x8-----10-x8-------------------------|
E|------------------1--------3--------5--------8-----------------------------|

e|---------------------------------------------------------------------------|
B|---------------------------------------------------------------------------|
G|---------------------------------------------------------------------------| 
D|----------------3-------5--------7------10--------12~----------------------|
A|----------------3-x8----5-x8-----7-x8---10-x16----12~----------------------|
E|----------------1-------3--------5------8---------10~----------------------|


=== Song Structure ===


Verse 1
Chorus 1
Verse 2
Chorus 2
Bridge
Chorus 3
Ending


=== Lyrics ===


In the back room
I see me creep through
I think I'm drunk and I do not know you
I stumble slowly and someone holds me
We hit the ground and before I know
You're cut

But you're not bleeding
As I'm retreating
I hear the sound of a weak heart beating
I stumble slowly and no one holds me
I hit the ground and now I know
I'm cut

How could you know?
I could be so, I could be so cold
When a light went out I lost myself and all control
How could you know, I could be so
I could be so cold

So this black vision
Cuts with precision
Every memory a perfect incision
I stand here motionless
You watch the child confess
With red heart, red hands and red eyes confess

It was my mistake…

With red heart and red hands and red eyes confess now
With red heart and red hands and red eyes confess
It was my mistake…


=== Key ===


| /  Slide up
| \  Slide down
| p  Pull-off
| PM Palm mute
| ~  Let note ring / Vibrato
| x  Mute note
| () Optional note

===============================================================================
Добавлено: 29.04.2012
Вам также может быть интересно:
Другие материалы по этой песне:
  • Аккорды и текст

Страница создана 29.04.2012
http://primanota.ru/telegraphs/so-cold-chords.htm
Привет, Гость.
Предлагаем пройти революционный курс по гитаре.
Подарок от PrimaNota.Ru, забирай!