PrimaNota.ru - самый крупный в мире бесплатный архив песенных текстов, аккордов, табулатур и нот


Telegraphs - Forever Never - таба, видео

Регистрация Запомнить меня
Войти через:  Facebook Google Twitter Vk Yandex Mail.ru

Telegraphs - Forever Never - таба, видео

Печатать
Просмотров: 80
Song: Forever Never
Artist: Telegraphs
Album: We Were Ghosts

www.telegraphsonline.co.uk
www.myspace.com/telegraphs

Tabbed by: Phillip Rubidge (phil87@ntlworld.com)

Tuning: Standard

Telegraphs guitar players are:

Darren LeWarne
Aung "Gary" Yay

I love this song so much it made me to learn my first song by ear, so this is 
also my first ever tab.
I'm really happy with it, especially the ending and the solo.

I have tabbed both guitars.


=== Intro/Chorus ===


Guitar 1

e|---------------|-----------------------------------------------------------|
B|---------------|-----------------------------------------------------------|
G|---------------|-----------------9---\---4---/---5---/---7-----------------| x2
D|----x-x-x-x----|---------7-------9---\---4---/---5---/---7-----------------|  
A|----x-x-x-x----|---------7-------7---\---2---/---3---/---5-----------------|
E|----x-x-x-x----|---------5-------------------------------------------------|


Guitar 2


e|-------------|-------------------------------------------------------------|
B|-------------|-------------------------------------------------------------|
G|---x-x-x-x---|--------7---/---14---\---9---/---10--/---12---/---21---------| x2
D|---x-x-x-x---|--------x---/---x----\---x---/---x---/---x----/---x----------|  
A|---x-x-x-x---|--------5---/---12---\---7---/---8---/---10---/---19---------|
E|-------------|-------------------------------------------------------------|


=== Verse ===


Guitar 1 (Clean)

e|-------------5------------7-----------8--------------10--------------------|
B|-------------5------------7-----------8--------------10--------------------|
G|-------------5------------7-----------8--------------10--------------------| x4
D|-------------7------------9-----------10-------------12--------------------|
A|-------------7------------9-----------10-------------12--------------------|
E|-------------5------------7-----------8--------------10--------------------|


Guitar 2 (Clean)

e|---------------------------------------------------------------------------|
B|---------------------------------------------------------------------------|
G|-------------12-----------11----------12-------------14---------14---------| x4
D|---------------------------------------------------------------------------|
A|---------------------------------------------------------------------------|
E|---------------------------------------------------------------------------|

Guitar 2 is much more pronounced on the second verse


=== Ending ===


Guitars 1 & 2

e|---------------------------------------------------------------------------|
B|---------------------------------------------------------------------------|
G|--------12----11--9-----14--12--16----19----21----17---—15--14-------------| x7
D|---------------------------------------------------------------------------|  
A|---------------------------------------------------------------------------|
E|---------------------------------------------------------------------------|


Guitar 1 plays clean
Guitar 2 comes in on the third play through (distortion, increasing volume)


=== Solo ===


Guitar 1

e|---------------------------------------------------------------------------|
B|---------------------------------------------------------------------------|
G|-----------/14-14-14-14-17-17-17-17-19-19-19-19-21-21-21-21----------------| x4
D|---------------------------------------------------------------------------|
A|---------------------------------------------------------------------------|
E|---------------------------------------------------------------------------|

                                                                              
E|-----------------------------------------------------------------|---------|
B|--------------------18------------19------------20---------------|---------|
G|----19p17—17-17-17------17-17-17------17-17-17------17-17-17-----|---14~---| x7
D|-----------------------------------------------------------------|---------|
A|-----------------------------------------------------------------|---------|
E|-----------------------------------------------------------------|---------|


Guitar 2


e|----------------------------------------------------------------------------|
B|----------------------------------------------------------------------------|
G|--------12----11--9-----14--12--16----19----21----17---—15--14--------------| x2
D|----------------------------------------------------------------------------|  
A|----------------------------------------------------------------------------|
E|----------------------------------------------------------------------------|


e|----------------------------------------------------------------------------|
B|----------------------------------------------------------------------------|
G|------------12----11--9-----14--12--16----19----21-----14~------------------| 
D|----------------------------------------------------------------------------|  
A|----------------------------------------------------------------------------|
E|----------------------------------------------------------------------------|


Hope you enjoyed playing it :D


=== Song Structure ===


Intro/Chorus
Verse
Intro/Chorus
Verse
Intro/Chorus
Ending
Solo


=== Lyrics ===


Do you dance and hope someone's watching
I hope that their eyes set you free
Though your freedom is my prison
Your happiness my enemy

Stake your claim and hit the city
The neon and street lights are free
Though they'll cost your soul a fortune
That's less than you've taken from me

That's less than you've taken from me
That's less than you've taken from…

All the postcards and the letters
All the boxes of memories
Take to flames like wooden hearts
And the ash is no good to me

You are the single lonely magpie
At the side of the highway
I say ‘good day', salute to your feathers
As your pecking at the maggots and flies
Of the road kill
I am stood still, and this is now goodbye

I was hoping one day
I could be myself again
Slip my ankles from your shackles
Leave you holding only chains

When the dust has settled
All the anger and the blame
Are packed away in cardboard boxes
I'll be ready for the change

I will run my fingers
Through the waters of our past
Undisturbed by old reflections
That nothing good could ever last

Like those childhood summers
That we thought could never end
Until the winter froze our senses
And we could no longer pretend

So I've stopped pretending
That we could ever make amends
Old promises are best forgotten
And we could never be best friends

I was hoping one day
I could be myself again
Slip my ankles from your shackles
Leave you holding only chains


=== Key ===


| /  Slide up
| \  Slide down
| p  Pull-off
| ~  Vibrato
| x  Mute note

===============================================================================
Добавлено: 26.06.2012
Вам также может быть интересно:
Другие материалы по этой песне:
  • Аккорды и текст

Страница создана 26.06.2012
http://primanota.ru/telegraphs/forever-never-chords.htm
Привет, Гость.
Предлагаем пройти революционный курс по гитаре.
Подарок от PrimaNota.Ru, забирай!