PrimaNota.ru - самый крупный в мире бесплатный архив песенных текстов, аккордов, табулатур и нот


Tegan And Sara - Want To Be Bad - текст песни, таба, видео

Регистрация Запомнить меня
Войти через:  Facebook Google Twitter Vk Yandex Mail.ru

Tegan And Sara - Want To Be Bad - текст песни, таба, видео

Печатать
Просмотров: 111
Song: Want To Be Bad
Artist: Tegan And Sara
Album: If It Was You
Tabbed By: Maite Diaz Langou
rockmaite@hotmail.com

ENJOY!!!!  :]

Tuning: Lower A to G


INTRO
(Strum the open strings at the same time)

e ------------------------------------------------|
B ------------------------------------------------|
G ------------------------------------------------|
D --12--10--12--10--9-10---12--10--12--10--9-10---|
G ------------------------------------------------|
E ------------------------------------------------|

e -------------------------------------------------------------------|
B -------------------------------------------------------------------|
G -------------------------------------------------------------------|
D --7--9--7--9--7--9--10-9—10-9-10---7--9--7--9--7--9--10-9—10-9-10--|
G -------------------------------------------------------------------|
E -------------------------------------------------------------------|


VERSE1 (Same as INTRO)

       “You Crowbar swung through the, the restaurant...”
e ------------------------------------------------|
B ------------------------------------------------|
G ------------------------------------------------|
D --12--10--12--10--9-10---12--10--12--10--9-10---|
G ------------------------------------------------|
E ------------------------------------------------|

e -------------------------------------------------------------------|
B -------------------------------------------------------------------|
G -------------------------------------------------------------------|
D --7--9--7--9--7--9--10-9—10-9-10---7--9--7--9--7--9--10-9—10-9-10--|
G -------------------------------------------------------------------|
E -------------------------------------------------------------------|


CHORUS
“Don't get in, over your head”  “I just want to be bad”
     C			   G			     Em
e ---0---------------------0-------------------------0------------|
B ---3---------------------3-------------------------0------------|
G ---0---------------------0-------------------------0------------|
D ---2---------------------0-------------------------2------------|
G ---0---------------------0-------------------------0------------|
E ---x---------------------3-------------------------0------------|

(Softer stumming)
“Oh oh, alright”  “You're so tragedy...”
            C                  G
e ----------0------------------0-------------------|
B ----------3------------------3-------------------|
G ----------0------------------0-------------------|
D ----------2------------------0-------------------|
G ----------0------------------0-------------------|
E ----------x------------------3-------------------|


VERSE 2

CHORUS


“Then morning came, we're in this together” (x2)
        C                           G
e ------0---------------------------0--------------|
B ------3---------------------------3--------------|
G ------0---------------------------0--------------|
D ------2---------------------------0--------------|
G ------0---------------------------0--------------|
E ------x---------------------------3--------------|

“I don't care how far we go... what's the matter”
		  Em			    G
e ----------------0-------------------------0------|
B ----------------0-------------------------3------|
G ----------------0-------------------------0------|
D ----------------2-------------------------0------|
G ----------------0-------------------------0------|
E ----------------0-------------------------3------|


CHORUS


THE END.
Добавлено: 10.03.2012
Другие материалы по этой песне:
  • Аккорды и текст

Страница создана 10.03.2012
http://primanota.ru/tegan-and-sara/want-to-be-bad-chords.htm
Привет, Гость.
Предлагаем пройти революционный курс по гитаре.
Подарок от PrimaNota.Ru, забирай!