PrimaNota.ru - самый крупный в мире бесплатный архив песенных текстов, аккордов, табулатур и нот


Tegan And Sara - Someday - текст песни, таба, бас-таба, видео

Регистрация Запомнить меня
Войти через:  Facebook Google Twitter Vk Yandex Mail.ru

Tegan And Sara - Someday - текст песни, таба, бас-таба, видео

Печатать
Просмотров: 146
this is a tab of what i hear when tegan and sara play the song "someday" stripped down
the guitar is much more prominent (just go look up tegan and sara someday stripped on
and take a listen!) than in the recorded version.. i think it sounds pretty cool and its 
easy to play so here goes my first tab ever

tuning: standard w/ capo on 3rd fret

Intro
e------------------------------|
B------------------------------|
G-6-------4------2------2------|
D-7-(x16)-6-(x4)-4-(x4)-2-(x8)-|  X2
A-0-------0------0------0------|
E------------------------------|

  "They yell speak up..." (first verse)
e------------------------------|
B------------------------------|
G-6-------4------2------2------|
D-7-(x16)-6-(x4)-4-(x4)-2-(x8)-|  X2
A-0-------0------0------0------|
E------------------------------|


"Might paint something i might wanna..." (chorus)
e---
B---
G-7-
D-7- X64
A-5-
E---

Repeat Intro

"They yell right on, a class act president..." (second verse)
e------------------------------|
B------------------------------|
G-6-------4------2------2------|
D-7-(x16)-6-(x4)-4-(x4)-2-(x8)-|  X4
A-0-------0------0------0------|
E------------------------------|

Repeat Chorus x2

"I don't wanna know that you don't want me..." (Bridge)

e--------|
B-3------|
G-2------|
D-4-(x64)   X2
A-0------|
E--------|

Repeat Intro

The last four choruses are played two different ways

The first, third, and fourth of the last four choruses are played:

e---
B---
G-6-
D-7- X64
A-0-
E---

The second of the last four choruses goes back to this:

e---
B---
G-7-
D-7- X64
A-5-
E---

Throughout almost the entire song, the second guitar repeats this piece:

e---------------------------14-12-|
B-12h14------------12h14----------|
G-------14---------------14-------|
D----------16-14------------------|
A---------------------------------|
E---------------------------------|

thanks! and if you have any suggestions about it email me (cutronax09@aol.com).. im new
this so any feedback would be welcome :)
Добавлено: 18.06.2012
Другие материалы по этой песне:
  • Аккорды и текст

Страница создана 12.04.2012
http://primanota.ru/tegan-and-sara/someday-chords.htm
Привет, Гость.
Предлагаем пройти революционный курс по гитаре.
Подарок от PrimaNota.Ru, забирай!