PrimaNota.ru - самый крупный в мире бесплатный архив песенных текстов, аккордов, табулатур и нот


Tegan And Sara - Light Up - таба, видео

Регистрация Запомнить меня
Войти через:  Facebook Google Twitter Vk Yandex Mail.ru

Tegan And Sara - Light Up - таба, видео

Печатать
Просмотров: 149
Tegan and Sara
Light Up
Sainthood(Bonus)

Tuning: D A D G B e
Capo 6


Verse 1:
e|-----------------------------------------|
B|-----------------------------------------|
G|-----------------------------------------|    X2
D|------3/5-----5\3-----5h7-----5\3--------| 
A|----0-------0-------3-------0------------|
D|--0-------0-------3-------0--------------|

Prechorus:
e|-----------------------------------------|
B|-----------------------------------------|
G|------7-----5-----0-----0----------------|    X2
D|----7-----5-----3-----2---3--------------|
A|--5-----3-----1-----0--------------------|
D|-----------------------------------------|

Verse 2:
e|-----------------------------------------|
B|-----------------------------------------|
G|-----------------------------------------|    X4
D|------3/5-----5\3-----5h7-----5\3--------| 
A|----0-------0-------3-------0------------|
D|--0-------0-------3-------0--------------|

Prechorus:
e|-----------------------------------------|
B|-----------------------------------------|
G|------7-----5-----0-----0----------------|    X2
D|----7-----5-----3-----2---3--------------|
A|--5-----3-----1-----0--------------------|
D|-----------------------------------------|

Chorus:
e|------------------------------------------|
B|------------------------------------------|
G|------7-----5-----0h2-----0---------------|    X4
D|----7-----5-----3-------2---3-------------|
A|--5-----3-----1-------0-------------------|
D|------------------------------------------|

Verse 3:
e|-----------------------------------------|
B|-----------------------------------------|
G|-----------------------------------------|    X4
D|------3/5-----5\3-----5h7-----5\3--------| 
A|----0-------0-------3-------0------------|
D|--0-------0-------3-------0--------------|

Prechorus:
e|-----------------------------------------|
B|-----------------------------------------|
G|------7-----5-----0-----0----------------|    X2
D|----7-----5-----3-----2---3--------------|
A|--5-----3-----1-----0--------------------|
D|-----------------------------------------|

Verse 4:
e|-----------------------------------------|
B|-----------------------------------------|
G|-----------------------------------------|    X2
D|------3/5-----5\3-----5h7-----5\3--------| 
A|----0-------0-------3-------0------------|
D|--0-------0-------3-------0--------------|

Prechorus:
e|-----------------------------------------|
B|-----------------------------------------|
G|------7-----5-----0-----0----------------|    X2
D|----7-----5-----3-----2---3--------------|
A|--5-----3-----1-----0--------------------|
D|-----------------------------------------|

Chorus:
e|------------------------------------------|
B|------------------------------------------|
G|------7-----5-----0h2-----0---------------|    X6
D|----7-----5-----3-------2---3-------------|
A|--5-----3-----1-------0-------------------|
D|------------------------------------------|

Ending:
e|--------|
B|--------|
G|--------|   
D|---3~---|
A|---0~---|
D|---0~---|

Добавлено: 22.06.2012
Другие материалы по этой песне:
  • Аккорды и текст

Страница создана 21.05.2012
http://primanota.ru/tegan-and-sara/light-up-chords.htm
Привет, Гость.
Предлагаем пройти революционный курс по гитаре.
Подарок от PrimaNota.Ru, забирай!