PrimaNota.ru - самый крупный в мире бесплатный архив песенных текстов, аккордов, табулатур и нот


Tegan And Sara - Hell - аккорды и текст, таба, бас-таба, видео

Регистрация Запомнить меня
Войти через:  Facebook Google Twitter Vk Yandex Mail.ru

Tegan And Sara - Hell - аккорды и текст, таба, бас-таба, видео

Печатать
Просмотров: 164
Hell
Tegan And Sara
Artist: Tegan & Sara
Song: Hell
Tabbed by: Manthony
10.10.09


TUNING: (EADGBE)                CAPO 1


** chords/notes relative to capo


CHORD DIAGRAM
----------------------------------------------------------------

 
 Em             Cm7            E7sus4         F                
                                  
 0 2 2 0 0 0    x 3 5 5 0 0    x 5 7 7 0 0    1 3 3 2 1 1


 Csus2          G              Am             Bsus4                       
                                  
 x 3 5 5 3 3    3 5 5 4 3 3    5 7 7 5 5 5    x 2 4 4 0 0  

 
 B7

 x 6 7 8 0 x
----------------------------------------------------------------



Em/ Cm7/ E7sus4



E||---------------------------------------------||
B||-8-8-8-8--7-7-7-7-----8-8-8-8--10-10-10-10---||
G||--7-7-7-7--7-7-7-7-7-7-7-7-7-7---7--7--7--7--|| REPEAT
D||---------------------------------------------||
A||---------------------------------------------||
E||---------------------------------------------||




Em
No I'm not ready for
  Cm7             E7sus4 
A big bad step in that direction
Em
No i'm not ready for
  Cm7            E7sus4 
A downtown trash void collection
    Em
4 o'clock is running high

I don't walk alone at night
    Cm7                  E7sus4
Cityscape, city change before they die
    Em
4 o'clock such a mention in a song if I wanna
     Cm7
Get along would change you
   E7sus4
It doesn't want to change this


...............................................

F          Csus2   G
I know you feel it too
Am                            
These words get over used when 
F             Csus2       G
We get up and over it and over them
Am
Up and over it and over them
F          Csus2   G
I know you feel it too
Am
It all seems so untrue when 
F              Csus2       G
You get up and over it and over them
Am
Uh uh oh oh uh uh oh oh

...............................................


E||---------------------------------------------||
B||-8-8-8-8--7-7-7-7-----8-8-8-8--10-10-10-10---||
G||--7-7-7-7--7-7-7-7-7-7-7-7-7-7---7--7--7--7--|| REPEAT
D||---------------------------------------------||
A||---------------------------------------------||
E||---------------------------------------------||



Em
No we're not ready for
  Cm7                      E7sus4
A fair distribution just a terminal solution
Em
No we're not ready for
Cm7               E7sus4
Hell hell no for, Hell hell no 
  Em
4 days wide awake while you slide along and say
       Cm7                            E7sus4
Girls afraid, Girls will change, just move away
  Em
4 days that I mention in a song move along
     Cm7                  E7sus4
Get ahead, get a hand and bring her with you



...............................................

F          Csus2   G
I know you feel it too
Am                            
These words get over used when 
F             Csus2       G
We get up and over it and over them
Am
Up and over it and over them
F          Csus2   G
I know you feel it too
Am
It all seems so untrue when 
F              Csus2       G
You get up and over it and over them
Am
Uh uh oh oh uh uh oh oh

...............................................



   Cm7/ E7sus4/ Am/ Em
E||-------------------------------------------||
B||-------------------------------------------||
G||---4---44---4---44-777-4~-444-777-------5~-|| 
D||-5---5----5---5-------------------7~-7-----||
A||-------------------------------------------||
E||-------------------------------------------||


   Cm7/ Bsus4/ E7sus4/ B7
E||-----------------------------------------------------||
B||-----------------------------------------------------||
G||---4---4----4---4---7-7-7-7-7-7-7-7------------------|| 
D||-5---5----4---4---------------------7-7-7-7-7-7-7-7--||
A||-----------------------------------------------------||
E||-----------------------------------------------------||






  Em
4 ways to remove all the bad that we do
         Cm7                       E7sus4
From the heart and the soul of the city sad and cold
  Em
4 ways to collect what we say and what we save
      Cm7                 E7sus4
To discard and discover a brand new way




...............................................

F          Csus2   G
I know you feel it too
Am                            
These words get over used when 
F             Csus2       G
We get up and over it and over them
Am
Up and over it and over them
F          Csus2   G
I know you feel it too
Am
It all seems so untrue when 
F              Csus2       G
You get up and over it and over them
Am
Uh uh oh oh uh uh oh oh

...............................................




Uh uh oh oh uh uh oh oh (x2)
Добавлено: 25.06.2012
Другие материалы по этой песне:

Страница создана 04.05.2012
http://primanota.ru/tegan-and-sara/hell-chords.htm
Привет, Гость.
Предлагаем пройти революционный курс по гитаре.
Подарок от PrimaNota.Ru, забирай!