PrimaNota.ru - самый крупный в мире бесплатный архив песенных текстов, аккордов, табулатур и нот


Teenage Fanclub - Your Love is The Place Where i Come From - текст песни, таба, видео

Регистрация Запомнить меня
Войти через:  Facebook Google Twitter Vk Yandex Mail.ru

Teenage Fanclub - Your Love is The Place Where i Come From - текст песни, таба, видео

Печатать
Просмотров: 108
Уроки эстрадного вокала в Санкт-Петербурге
Авторы музыки: Raymond McGinley
Авторы текста: Raymond McGinley
Tab for Teenage Fanclub - Your Love is the Place Where I Come From, Songs from Northern Britain
Capo on first fret

Verse Chords
G  /  D  /  Em  /  Em  
Cmaj9  /  Bm  /  Am  /  C   D*

Special chords
  Cmaj9     D* (just slide the C chord up two frets)
||-0---   --0--- 
||-3---   --3--- 
||-4---   --0--- 
||-2---   --4--- 
||-3---   --5--- 
||-----   ------


Chords for break (0:48) and solo
A  /  A7  /  A  /  A7


Chorus chords "I can't slip away when I see your face..."
G  /  F#m  /  Em  /  C  Bm
Am  /  G  /   C  /  C

The song ends with the chorus playing out.


Solo, played with the A / A7 sequence
                                                                                            
||-5--5-5--5-5-5|5/3-2-2h3-0---|--------------|--------------|--------------||
||--------------|-----------2h3|2/3-3/5-5-7-7-|5h7-8-8-8--7-8|10-10-10-8h10-|| 
||6--6-6--6-----|--------------|--------------|--------------|--------------|| 
||--------------|--------------|--------------|--------------|--------------|| 
||--------------|--------------|--------------|--------------|--------------|| 
||--------------|--------------|--------------|--------------|--------------|| 

the solo leads into this lead guitar line which plays out with the chorus chords to the end 
b = bend to the sound of the next note
h = hammer on
||--------------|--------------|--------------|--------------|| 
||12b13-------15|10b11---------|8h10---8------|8-8-10-10-8-10|| repeat
||13b14---------|11b12---------|---------9-7/9|---9----------|| 
||--------------|--------------|--------------|--------------|| 
||--------------|--------------|--------------|--------------|| 
||--------------|--------------|--------------|--------------||

Tab for Glockenspiel line
||------15-17-19|--------------|--------------|--------------|| 
||13-15---------|--------------|--------------|--------------|| 
||--------------|--------------|--------------|--------------|| 
||--------------|--------------|--------------|--------------|| 
||--------------|--------------|--------------|--------------|| 
||--------------|--------------|--------------|--------------|| 
Добавлено: 07.12.2015
Другие материалы по этой песне:
  • Аккорды и текст

Страница создана 26.07.2012
http://primanota.ru/teenage-fanclub/your-love-is-the-place-where-i-come-from-chords.htm
Привет, Гость.
Предлагаем пройти революционный курс по гитаре.
Подарок от PrimaNota.Ru, забирай!