PrimaNota.ru - самый крупный в мире бесплатный архив песенных текстов, аккордов, табулатур и нот


Teenage Fanclub - Dont Look Back - аккорды и текст, таба, видео

Регистрация Запомнить меня
Войти через:  Facebook Google Twitter Vk Yandex Mail.ru

Teenage Fanclub - Dont Look Back - аккорды и текст, таба, видео

Печатать
Просмотров: 109
Авторы музыки: Gerard Love
Авторы текста: Gerard Love
Dont Look Back
Teenage Fanclub



# http://www.uark.edu/~cbray/tfc/
#
# If you have any corrections or additions to this file, please email them
# to cbray@comp.uark.edu
#

Don't Look Back

Chords by:  Chris Bray  (cbray@comp.uark.edu)
  with help from Gerry Love
Corrections by:  Mike Sullivan (s5mjas@csc.liv.ac.uk)
Corrections and tab by:  Masanori Ogino  (ogino@ke.sys.hiroshima-u.ac.jp)


Capo 3rd fret


{Intro}:  G  Am 7  G

then

G|----------------
D|--h2--0---------
A|---------2--0---
E|----------------

B|----------------8------8/10--10----------8-8----
G|--7-9---7---7h9-----9-----------7---7h9------9--
D|------------------------------------------------
A|------------------------------------------------

B|-/12-12-12-x-12---12-13--13-13-12-1210-10-10-8---
G|--11-11-11-x-11---11-11--11-11-11-11-9--9--9---9-
D|--------------------------------------------------
A|--------------------------------------------------

B|-10p8-8--8h10-8----------------------------------------
G|----------------9-7------------------------------------
D|---------------------9-9--7h9p7----5--5-57--7-7--0--
A|---------------------------------9---------------------



Am7        D                 G
If I could find ...
                       Am7   D
The sun ...
            G  Am7     D
So brighten ...


Am7           D               G
Break out the news, it's ...
                        Am7     D
The voice that ...
          G    G/F#
She don't ...
    Em           Em7      D
And hope's never ...


G           G7
Wake up the ...
C               Cm
Climb aboard ...


    G    D          C    G
And understand if I ...
         D          C     G
I'd give both ....
            D      C         G
I'd steal a car to ....
             D          C     G
I don't look back ...


Am7         D                G
Repaint the Blues...
                  Am7      D
Is lost ...
            G       Am7     D
The morning sun's a ...


Am7          D              G
She lives in ...
                   Am7    D
Stretching ...
            G   G/F#      Em           Em7     D
Got my mind set something ...


G              G7               C              Cm
I don't need a guiding ...


    G    D          C    G
And understand if ....
         D          C     G
I'd give both ...
            D      C         G
I'd steal a car to ...
             D          C     G
I don't look back on ...


 G     D    C
(Don't look back) on ...
 G     D    C
(Don't look back) on ...
 G     D    C
(Don't look back) on ...
 G     D    C
(Don't look back) on an empty feeling


{Ending riff}

{riff #1}  (x2)
A|--------------------------------|--------------------------------|
E|3-3-3-3/5-5-5-52-2-2-2/3-3-3-3-|-3-3-3-3/5-5-5-5/7-7-7-72-2-2-2|

{riff #2}  (x3)
D|----------------------------------
A|-5-5-5-5/7-7-7-7/9-9-9-94-4-4-4--
E|-3-3-3-3/5-5-5-5/7-7-7-72-2-2-2--

then
e|---------------------------------3-
B|---------------------------------3-
G|---------------------------------4-
D|---------------------------------5-
A|-5-5-5-5/7-7-7-7/9-9-9-94-4-4-4/5-
E|-3-3-3-3/5-5-5-5/7-7-7-72-2-2-2/3-


Добавлено: 04.11.2013
Другие материалы по этой песне:
  • Аккорды и текст

Страница создана 25.03.2012
http://primanota.ru/teenage-fanclub/dont-look-back-chords.htm
Привет, Гость.
Предлагаем пройти революционный курс по гитаре.
Подарок от PrimaNota.Ru, забирай!