PrimaNota.ru - самый крупный в мире бесплатный архив песенных текстов, аккордов, табулатур и нот


Teenage Bottlerocket - They Call Me Steve - таба, видео

Регистрация Запомнить меня
Войти через:  Facebook Google Twitter Vk Yandex Mail.ru

Teenage Bottlerocket - They Call Me Steve - таба, видео

Печатать
Просмотров: 107
Уроки эстрадного вокала в Санкт-Петербурге
Intro:

Play once:

e:-2-2-2-2-2-2-2-2-0-0-0-0-0-0--2-3-|
B:-3-3-3-3-3-3-3-3-3-3-3-3-3-3--3-3-|
G:----------------------------------|
D:----------------------------------|
A:----------------------------------|
E:----------------------------------|

e:-2-2-2-2-2-2-2-2-3-3-3-3-3-3-|
B:-3-3-3-3-3-3-3-3-3-3-3-3-3-3-|
G:-----------------------------|
D:-----------------------------|
A:-----------------------------|
E:-----------------------------|

Then play this twice:

Basically, you're adding the two missing notes of a D chord

e:-2-2-2-2-2-2-2-2-0-0-0-0-0-0--2-3-|
B:-3-3-3-3-3-3-3-3-3-3-3-3-3-3--3-3-|
G:-2-2-2-2-2-2-2-2-2-2-2-2-2-2--2-2-|
D:-0-0-0-0-0-0-0-0-0-0-0-0-0-0--0-0-|
A:----------------------------------|
E:----------------------------------|

e:-2-2-2-2-2-2-2-2-3-3-3-3-3-3-|
B:-3-3-3-3-3-3-3-3-3-3-3-3-3-3-|
G:-2-2-2-2-2-2-2-2-2-2-2-2-2-2-|
D:-0-0-0-0-0-0-0-0-0-0-0-0-0-0-|
A:-----------------------------|
E:-----------------------------|

Intro chords, verse chords, chorus chords:

   D  A  Bm G
e:-------------|
B:-------------|
G:-------------|
D:-7-----------|
A:-5--7--9--5--|
E:----5--7--3--|

Also, in the verse and the chorus, at the end of the G chord this note is played for 
just a short moment until the chord cycle begins again:

e:------|
B:------|
G:------|
D:------|
A:------|
E:-2----|

And then there is a part near the end where the G chord is played for a while until 
there is a stop. And then the chord cycle is played four times and on the third time the 
cycle begins the intro solo comes in again.
Добавлено: 01.10.2015
Вам также может быть интересно:
Другие материалы по этой песне:

Страница создана 01.10.2015
http://primanota.ru/teenage-bottlerocket/they-call-me-steve-chords.htm
Привет, Гость.
Предлагаем пройти революционный курс по гитаре.
Подарок от PrimaNota.Ru, забирай!