PrimaNota.ru - самый крупный в мире бесплатный архив песенных текстов, аккордов, табулатур и нот


Teenage Bottlerocket - In The Pit - таба, видео

Регистрация Запомнить меня
Войти через:  Facebook Google Twitter Vk Yandex Mail.ru

Teenage Bottlerocket - In The Pit - таба, видео

Печатать
Просмотров: 123
Standard Tuning: E A D G B e

b=bend
h=hammer on
p=pull-out
/=slide
~=ring out

Teenage Bottlerocket - In The Pit from the album Freakout!


Intro/Lead
e|-----7-------7--------7------------|
B|---7---7---7---7----7---7---7-8-7--|
G|------------------7-------9--------|
D|-9-------9-------------------------|
A|-----------------------------------|
E|-----------------------------------|

Intro/Verse (Rhythm)
e|----------------------------------------|
B|----------------------------------------|
G|-----------------------77777777-----999-|
D|-7/99999999-7/99999999-77777777-777-999-|
A|-7/99999999-7/99999999-55555555-777-777-|
E|-5/77777777-5/77777777----------555-----|


Chorus
e|---------------------------------|------------|
B|---------------------------------|------------|
G|---------777777------------------|------------|
D|-5555555-777777-7777777-9999999--|-5555555-7--|
A|-5555555-555555-7777777-9999999--|-5555555-7--|
E|-3333333--------5555555-7777777--|-3333333-5--|

Solo (| = spacing, no special methods)
e|--------------------------------------|
B|--------------------------------------|
G|----------7-------9-------11---12-11b-|
D|-7h9999999-9999999-9999999--999-------|
A|--------------------------------------|
E|--------------------------------------|

e|------------------------10--------------------12-|
B|-10h12|12|12|12|12|12|12--12|12|12|12|12|12|12---|
G|-------------------------------------------------|
D|-------------------------------------------------|
A|-------------------------------------------------|
E|-------------------------------------------------|

e|------------------14--------15-14b-|
B|-12|12|12|12|12|12--12|12|12-------|
G|-----------------------------------|
D|-----------------------------------|
A|-----------------------------------|
E|-----------------------------------|

e|---------------------------------|
B|---------------------------------|
G|---------------------------------|
D|-7/9-7---------------------------|
A|-------7h9-10-9b--777-7h9-10-9b~-|
E|---------------------------------|

e|--------------------------------|
B|--------------------------------|
G|--------------------------------|
D|-7/9-7--------------------------|
A|-------7h9-10-9b--5-5h7-7/9-7b~-|
E|--------------------------------|

e|---------------------------------|
B|---------------------------------|
G|---------------------------------|
D|-7/9-7---------------------------|
A|-------7h9-10-9b--777-7h9-10-9b~-|
E|---------------------------------|

e|----------------|
B|----------------|
G|----------------|
D|-7/9-7----------|
A|-------10-9-7b~-|
E|----------------|

Check out the People Friendly Podcast, FREE COMEDY PODCAST @ cyberears.com!
Добавлено: 12.10.2013
Другие материалы по этой песне:
  • Аккорды и текст

Страница создана 12.10.2013
http://primanota.ru/teenage-bottlerocket/in-the-pit-chords.htm
Привет, Гость.
Предлагаем пройти революционный курс по гитаре.
Подарок от PrimaNota.Ru, забирай!