PrimaNota.ru - самый крупный в мире бесплатный архив песенных текстов, аккордов, табулатур и нот


Teenage Bottlerocket - Haunted House - таба, видео

Регистрация Запомнить меня
Войти через:  Facebook Google Twitter Vk Yandex Mail.ru

Teenage Bottlerocket - Haunted House - таба, видео

Печатать
Просмотров: 128
Уроки эстрадного вокала в Санкт-Петербурге
Intro:

Repeat twice:

e:-----2-----------------------------------2----------|
B:-0------5--4--2--4---2--4--5-4-2-4-2--0-----5-4-2-4-|
G:----------------------------------------------------|
D:----------------------------------------------------|
A:----------------------------------------------------|
E:----------------------------------------------------|

e:----2---------|
B:-0----5-4-2-4-|
G:--------------|
D:--------------|
A:--------------|
E:--------------|

Chords:

Play this twice:

e:----------------|
B:----------------|
G:----------------|
D:-----11------9--|
A:-9---9---6---7--|
E:-7-------4------|


Verse Chords:

Play twice:


 <---Palm Mute----|gt;
e:-------------------|
B:-------------------|
G:-------------------|
D:-----8-------9-----|
A:-9---6---6---7-----|
E:-7-------4---------|

Then the intro solo is played once and the chords are played once, then back to the Verse chords:

Second Verse Chords:

              (E)
 <---Palm Mute----|gt;
e:-------------------|
B:-------------------|
G:-------------------|
D:-----8-------9-----|
A:-9---6---6---7-----|
E:-7-------4---------|

They play an E chord on the last chord right here but you can still play it like the 
first verse because the chords are in octaves.

 <---Palm Mute----|gt;
e:-------------------|
B:-------------------|
G:-------------------|
D:-----8-------9-----|
A:-9---6---6---7-----|
E:-7-------4---------|

Pre-Chorus / Bridge Chords:

Play three times

e:--------|
B:--------|
G:--------|
D:-11--9--|
A:-9---7--|
E:--------|

Chorus:

Play four times:

e:----------------|
B:----------------|
G:----------------|
D:-----11------9--|
A:-9---9---6---7--|
E:-7-------4------|


Solo:

Play these notes fast and play a lot of each note, meaning that you should stum every 
note multiple times before going on to the next note.

Repeat Twice:

e:----------2--------|
B:-------------------|
G:--4-3-4-6---5-4-2--|
D:-------------------|
A:-------------------|
E:-------------------|

Repeat twice:

e:--------------14-12-11----|
B:--12-11-12-14----------14-|
G:--------------------------|
D:--------------------------|
A:--------------------------|
E:--------------------------|

Played in background while the pre-chorus chords are being played:

R = ring out

Let them ring out just a little bit, play this once:

e:----------|
B:-14r--12r-|
G:----------|
D:----------|
A:----------|
E:----------|

Pre-Chorus / Bridge:

Play three times

e:--------|
B:--------|
G:--------|
D:-11--9--|
A:-9---7--|
E:--------|


Chorus:

Play four times:

e:----------------|
B:----------------|
G:----------------|
D:-----11------9--|
A:-9---9---6---7--|
E:-7-------4------|

Outro Chords:

R = ring out

e:--------------|
B:--------------|
G:--------------|
D:----------9r--|
A:-9--6--4--7r--|
E:-7--4--2------|

Then there is a pick-slide going down the neck and then this chord is played:

e:----|
B:----|
G:----|
D:----|
A:-9--|
E:-7--|
Добавлено: 01.10.2015
Другие материалы по этой песне:

Страница создана 01.10.2015
http://primanota.ru/teenage-bottlerocket/haunted-house-chords.htm
Привет, Гость.
Предлагаем пройти революционный курс по гитаре.
Подарок от PrimaNota.Ru, забирай!