PrimaNota.ru - самый крупный в мире бесплатный архив песенных текстов, аккордов, табулатур и нот


Teenage Bottlerocket - Forbidden Planet - аккорды и текст, видео

Регистрация Запомнить меня
Войти через:  Facebook Google Twitter Vk Yandex Mail.ru

Teenage Bottlerocket - Forbidden Planet - аккорды и текст, видео

Печатать
Просмотров: 126
Авторы: Teenage Bottlerocket

Forbidden Planet
Teenage Bottlerocket
Teenage Bottlerocket
Forbidden Planet
They Came From shadows
2009 Fat Wreck Chords
Submitted by: jeremyunderground41@yahoo.com

Key: Bb

Tuning: Standard EADGBe

Chords used:
Gm - 355333
Eb - x68886
Bb - x13331
F -  133211
Cm - x35543
D -  xx0231


Intro: 

Ray: Gm--F-Eb-D- x4

Kody:
e|-----------------------------------|
B|-----------------------------------|
G|-0-0-12-0-0-10-0-0-8-0-7-0-7-8-7-0-|
D|-----------------------------------| x8
A|-----------------------------------|
E|-----------------------------------|


Verse:
Gm
  They tried to warn 
                F  Eb
us we did it anyway
Gm
  No one can save us our
                    F Eb
time has come to pay
Gm
  Destroying anything
                       F  Eb
that's standing in its way 
Gm
  Nothing can stop it 
                     F Eb
won't see another day


Chorus 1:
        Bb          F
With communications down
   Gm                Eb
No one will hear our cries
   Bb             F
On this forbidden planet
               Gm F
is where we'll die
Eb(hold)
die!!!


Post Chorus: 

Guitar Solo

Ray:
Gm--F-Eb-D- x4

Kody: x2
e|--------------------------------------------------|
B|----------------------------------8---------------|
G|-------------------------------7-----10--8--7-8-7-|
D|-5-3-5-7--5-7-8--7-8-10--8-10---------------------|
A|--------------------------------------------------|
E|--------------------------------------------------|

e|--------------------------------------------------|
B|--------------------------------------------------|
G|-------------------------------------2-3--2-------|
D|-5-3-5-7--5-7-8--7-8-10--8-7--5--3-5---------5--3-|
A|--------------------------------------------------|
E|--------------------------------------------------|


Interlude:

Ray:
Gm--F-Eb-D- x2

Kody:
e|-----------------------------------|
B|-----------------------------------|
G|-0-0-12-0-0-10-0-0-8-0-7-0-7-8-7-0-|
D|-----------------------------------| x3
A|-----------------------------------|
E|-----------------------------------|

e|---------------------------------|
B|---------------------------------|
G|-0-0-12-0-0-10-0-0-8-0-7-0-7-8-7-|
D|---------------------------------|
A|---------------------------------|
E|---------------------------------|


(Repeat Verse)


Chorus 2:
        Bb          F
With communications down
   Gm                Eb
No one will hear our cries
   Bb             F
On this forbidden planet
               Gm
is where we'll die
        Bb          F
With communications down
   Gm                Eb
No one will hear our cries
   Bb             F
On this forbidden planet
               Gm Bb Cm Eb
is where we'll die
                 Gm Bb Cm Eb
It's where we'll die
                Gm
We did it to ourselves
                Bb
We did it to ourselves
                Cm
We did it to ourselves
                Eb
We did it to ourselves
                Gm
We did it to ourselves
                Bb
We did it to ourselves
                Cm
We did it to ourselves
                Eb
We did it to ourselves
                Gm(hold) Gm(hold)
We did it to ourselves


Kody: while singing "We Did It To Ourselves"
e|-----------------------------------|
B|-----------------------------------|
G|-0-0-12-0-0-10-0-0-8-0-7-0-7-8-7-0-|
D|-----------------------------------| x10
A|-----------------------------------|
E|-----------------------------------|
Добавлено: 20.01.2014
Другие материалы по этой песне:

Страница создана 28.10.2013
http://primanota.ru/teenage-bottlerocket/forbidden-planet-chords.htm
Привет, Гость.
Предлагаем пройти революционный курс по гитаре.
Подарок от PrimaNota.Ru, забирай!