PrimaNota.ru - самый крупный в мире бесплатный архив песенных текстов, аккордов, табулатур и нот


Ted Nugent - Thighraceous - текст песни, бас-таба, видео

Регистрация Запомнить меня
Войти через:  Facebook Google Twitter Vk Yandex Mail.ru

Ted Nugent - Thighraceous - текст песни, бас-таба, видео

Печатать
Просмотров: 96



G-------------------------------------------------
D--------2-0----------2-0----------2-0------------
A-------------------------------------------------
E--3/2-0--------3/2-0------3/2-0------------------

Play 5's when ted plays harmonic

G-----------------------------------------------
D-----------------------------------------------
A-----------------------------------------------
E--5-5-5-5--5-5-5-5--5-5-5-5--5-5-5-5-----------

G-----------------------------------------------
D---------2-0--------2-0--------2-0-------------
A-----------------------------------------------
E--3/2-0-------3/2-0------3/2-0-----------------

play when ted dose 2nd harm. this also repeats later listen for time

G-----------------------------------------------------------
D-----------------------------------------------------------
A-----------------------------------------------------------
E--5-5-5-5-5-5-5-5-5-5-5-5-5-5-5-5--7-7-7-7-7-7-7-7-7-7-7-7-

bass plays this alone right before solo

G----------------------------------------------------
D---------2-0-----------2-0--------------------------
A----------------------------------------------------
E--3/2-0--------3/2-0--------------------------------

thats it, dont have the solo because my guitar player makes one up.
after solo it all repeats just listen for time. first tab so rate good

Добавлено: 20.09.2013
Другие материалы по этой песне:

Страница создана 09.06.2013
http://primanota.ru/ted-nugent/thighraceous-chords.htm
Привет, Гость.
Предлагаем пройти революционный курс по гитаре.
Подарок от PrimaNota.Ru, забирай!