PrimaNota.ru - самый крупный в мире бесплатный архив песенных текстов, аккордов, табулатур и нот


The ted neeley five - Autumn Afternoon - бас-таба, видео

Регистрация Запомнить меня
Войти через:  Facebook Google Twitter Vk Yandex Mail.ru

The ted neeley five - Autumn Afternoon - бас-таба, видео

Печатать
Просмотров: 72
Tabbed by: 6METAL6BASSIST6
E-mail: petergriffinav@gmail.com

Tuning: EADG

0:05

G|----------------------------------------------------------------|
D|--------------------5---2---------------------------5-----------|
A|------------5-------------------------------5-------------------|
E|5-------------------------------5---------------------------3---|

G|----------------------------------------------------------------|
D|--------------------5---2---------------------------5---2-------|
A|------------5-------------------------------5-------------------|
E|5---------------------------3---5---------------------------3---|

0:14

G|----------------------------------------------------------------|
D|----------------------------------------------------------------|
A|----------------------------------------------------------------|
E|5-----------5-------0-------3---5-----------5-------0-------3---|

G|----------------------------------------------------------------|
D|--------------------5---2-------------------5-------3-----------|
A|------------5---------------------------------------------------|
E|5---------------------------3---5---------------------------3---|

G|----------------------------------------------------------------|
D|----------------------------------------------------------------|
A|----------------------------------------------------------------|
E|5-----------5-------0-------3---5-----------5-------0-------3---|

G|----------------------------------------------------------------|
D|--------------------5---2-------------------5---------------5---|
A|------------5---------------------------------------------------|
E|5---------------------------3---5-------------------3-----------|

0:33

G|----------------------------------------------------------------|
D|3-------3-----3-3---3-------3-----------------------------------|
A|--------------------------------2-------2-----2-2---2-------2---|
E|----------------------------------------------------------------|

G|----------------------------------------------------------------|
D|----------------------------------------------------------------|
A|----------------------------------------------------2-----------|
E|1-------1-----1-1---1-------1---0-------0-------3-------3---0---|

G|--------------------------------------------------------------------|
D|--------------------------------------------------------------------|
A|--------------------------------------------------------------------|
E|1-----------1---1---1---1---1---1-----------------------------------|

0:46

G|----------------------------------------------------------------|
D|----------------------------------------------------------------|
A|7-----------7---7---7-------8---8-----------8---8---8-------8---|
E|----------------------------------------------------------------|

G|----------------------------------------------------------------|
D|----------------------------------------------------------------|
A|7-----------7---7---7-------7---6-----------6---6---6---6---6---|
E|----------------------------------------------------------------|

G|----------------------------------------------------------------|
D|--------------------------------6-------------------------------|
A|----------------------------------------------------------------|
E|------------4---------------4-/---------------------------------|

1:00

G|----------------------------------------------------------------|
D|----------------------------------------------------------------|
A|----------------------------------------------------------------|
E|5-----------5-------0-------3---5-----------5-------0-------3---|

G|----------------------------------------------------------------|
D|--------------------5-------------------------------5-----------|
A|------------5-------------------------------5-------------------|
E|5---------------------------3---5---------------------------3---|

G|----------------------------------------------------------------|
D|--------------------5---2---------------------------5---2-------|
A|------------5-------------------------------5-------------------|
E|5---------------------------3---5---------------------------3---|

1:13

G|----------------------------------------------------------------|
D|----------------------------------------------------------------|
A|----------------------------------------------------------------|
E|5-----------5-------0-------3---5-----------5-------0-------3---|

G|----------------------------------------------------------------|
D|--------------------5---2-------------------5-------3-----------|
A|------------5---------------------------------------------------|
E|5---------------------------3---5---------------------------3---|

G|----------------------------------------------------------------|
D|----------------------------------------------------------------|
A|----------------------------------------------------------------|
E|5-----------5-------0-------3---5-----------5-------0-------3---|

G|----------------------------------------------------------------|
D|--------------------5---2-------------------5---------------5---|
A|------------5---------------------------------------------------|
E|5---------------------------3---5-------------------3-----------|

1:32

G|----------------------------------------------------------------|
D|3-------3-----3-3---3-------3-----------------------------------|
A|--------------------------------2-------2-----2-2---2-------2---|
E|----------------------------------------------------------------|

G|----------------------------------------------------------------|
D|----------------------------------------------------------------|
A|----------------------------------------------------2-----------|
E|1-------1-----1-1---1-------1---0-------0-------3-------3---0---|

G|--------------------------------------------------------------------|
D|--------------------------------------------------------------------|
A|--------------------------------------------------------------------|
E|1-----------1---1---1---1---1---1-----------------------------------|

1:45

G|----------------------------------------------------------------|
D|----------------------------------------------------------------|
A|7-----------7---7---7-------7---8-----------8---8---8-------8---|
E|----------------------------------------------------------------|

G|----------------------------------------------------------------|
D|----------------------------------------------------------------|
A|7-----------7---7---7-------7---6-----------6---6---6---6---6---|
E|----------------------------------------------------------------|

G|----------------------------------------------------------------|
D|--------------------------------6-------------------------------|
A|----------------------------------------------------------------|
E|------------4---------------4-/---------------------------------|

1:59

G|----------------------------------------------------------------|
D|----------------------------------------------------------------|
A|----------------------------------------------------------------|
E|5-----------5-------0-------3---5-----------5-------0-------3---|

G|----------------------------------------------------------------|
D|--------------------5---2---------------------------5-----------|
A|------------5-------------------------------5-------------------|
E|5---------------------------3---5---------------------------3---|

G|----------------------------------------------------------------|
D|--------------------5---2---------------------------5---3-------|
A|------------5-------------------------------5-------------------|
E|5---------------------------3---5---------------------------3---|

G|----------------------------------------------------------------|
D|--------------------5---2---------------------------5---2-------|
A|------------5-------------------------------5-------------------|
E|5---------------------------3---5---------------------------3---|

G|----------------------------------------------------------------|
D|--------------------5---2---------------------------5---3-------| fades out here.
A|------------5-------------------------------5-------------------|
E|5---------------------------3---5---------------------------3---|
Добавлено: 14.06.2016
Другие материалы по этой песне:
  • Аккорды и текст

Страница создана 14.06.2016
http://primanota.ru/ted-neeley-five/autumn-afternoon-chords.htm
Привет, Гость.
Предлагаем пройти революционный курс по гитаре.
Подарок от PrimaNota.Ru, забирай!