PrimaNota.ru - самый крупный в мире бесплатный архив песенных текстов, аккордов, табулатур и нот


Ted Leo - First To Finish Last To Start - таба, видео

Регистрация Запомнить меня
Войти через:  Facebook Google Twitter Vk Yandex Mail.ru

Ted Leo - First To Finish Last To Start - таба, видео

Печатать
Просмотров: 145
-------------------------------------------------------------------------------
                             First To Finish Last To Start - Ted Leo
-------------------------------------------------------------------------------
Tabbed by:lmcoon
Email:lmcoon@hotmail.com

Tuning: Standard

He doesn't play the top strings as much as the bottom.  Listen to the song for
where the upstrokes are.  Its mostly these chords the whole time, then just repeat.  
P.S. - I watched it live to get these.


e|-8----5---1-1---8------5-5--8----1---1--3----5-5-5----1~---1--3-3----------|
B|-8----5---1-1---8------5-5--8----1---1--3----5-5-5----1~---1--3-3----------|
G|-9----5---2-2---9------5-5--9----2---2--4----5-5-5----2~---2--4-4----------|
D|-10---7---3-3---10-----7-7--10---3---3--5----7-7------3~---3--5-7--Repeat--|
A|-10---7---3-3---10-----7-7--10---3---3--5----7-7------3~---3--5-7----------|
E|-8----5---1-1---8------5-5--8----1-0-1--3----5-5------1~-0-1--3-5----------|
Добавлено: 30.05.2012
Другие материалы по этой песне:
  • Аккорды и текст

Страница создана 30.05.2012
http://primanota.ru/ted-leo/first-to-finish-last-to-start-chords.htm
Привет, Гость.
Предлагаем пройти революционный курс по гитаре.
Подарок от PrimaNota.Ru, забирай!