PrimaNota.ru - самый крупный в мире бесплатный архив песенных текстов, аккордов, табулатур и нот


Ted Leo & The Pharmacists - The Ballad Of The Sin Eater - таба, видео

Регистрация Запомнить меня
Войти через:  Facebook Google Twitter Vk Yandex Mail.ru

Ted Leo & The Pharmacists - The Ballad Of The Sin Eater - таба, видео

Печатать
Просмотров: 81
Artist: Ted Leo and The Pharmacists
Song: The Ballad of the Sin Eater
Tab by: Diego (diegofed7@hotmail.com)
it's all my work

intro(not sure if the first two chords are right)
E-----------------
B-----------------
G-5-----5--7--5---
D-5--5--5--7--5--5
A-3--5--3--5--3--5
E----3-----------3

verse
E--------------------------
B--------------------------
G--------------------------
D--------------------------
A--------3x16---5x16-------
E--3x16----------------3x16

chorus
x3
E--------------------------
B--------------------------
G--------------------------
D--------------------------
A---------------3-3-2-3----
E-333333333333-------------

x1
E--------------------------
B--------------------------
G--------------------------
D------------33333333------
A--55555555----------------
E--------------------------

_________________________________________________________________
     
Добавлено: 05.12.2013
Вам также может быть интересно:
Другие материалы по этой песне:
  • Аккорды и текст

Страница создана 05.12.2013
http://primanota.ru/ted-leo-and-the-pharmacists/the-ballad-of-the-sin-eater-chords.htm
Привет, Гость.
Предлагаем пройти революционный курс по гитаре.
Подарок от PrimaNota.Ru, забирай!