PrimaNota.ru - самый крупный в мире бесплатный архив песенных текстов, аккордов, табулатур и нот


Ted Leo & The Pharmacists - Shake The Sheets - текст песни, таба, видео

Регистрация Запомнить меня
Войти через:  Facebook Google Twitter Vk Yandex Mail.ru

Ted Leo & The Pharmacists - Shake The Sheets - текст песни, таба, видео

Печатать
Просмотров: 61
                              Shake The Sheets - Ted Leo + Pharmacists                             


                                                                         
KEY OF Dm (F major)

Basic Structure:
Drum Intro (2 bars)
Bass Intro (2 bars)
Riff 1 intro (Alternate D5 - C5)
Riff 1 Verse 1 (singing happens during Bb chord)
Chorus A
Riff 1 Verse 2 (like in verse 1, but accentuate higher strings in Bb chord and add guitar 2 riff during D5/C5)
Chorus A
Chorus B
Bridge
Chorus B
Outro (2 bars only)
Chorus B
Outro (repeat al fine)



Riff 1                                       
   D5           C5            Bb              
          
---------------------------|--6----------------|
---------------------------|--6----------------|
---------------------------|--7----------------|
--12-----12----10----10----|--8----------------|
--12-----12----10----10----|--8----------------|
--10-----10-----8-----8----|--6----------------|


Chorus A                                                  
  Dm                               G5    palm mute                    
 
--1--------0--------------------|--------------------------|
--------------3--1-----1--------|--------------------------|
---------------------2----2--0--|--0--0--0--0--0--0--0--0--|
--------------------------------|--------------------------|
--------------------------------|--------------------------|
--------------------------------|--------------------------|


Chorus B                                                    
  Dm       Am          Gm                    
 
--5--------5--------|--3----------------|
--6--------5--------|--3----------------|
--7--------5--------|--3----------------|
--7--------7--------|--5----------------|
--5--------7--------|--5----------------|
-----------5--------|--3----------------|

  Dm       Am          Gm         C5                    
 
--5--------5--------|--3----------------|
--6--------5--------|--3----------------|
--7--------5--------|--3----------5-----|
--7--------7--------|--5----------5-----|
--5--------7--------|--5----------3-----|
-----------5--------|--3----------------|


Bridge   (Rhythm is fairly complex but here's the basic lick)
                                              
   A#5                                        F5           
  
|------------------------------|--------------------------|--------------------------
|------------------------------|--------------------------|--------------------------
|--3------3--3--3--3--3--3--3--|--------------------------|--------------------------
|--3------3--3--3--3--3--3--3--|-----------3--3--3--3--3--|--3--3--3--3--------------
|--1------1--1--0--1--1--1--1--|--1--3--5-----3--3--3--3--|--3--3--3--3-----------3--
|------------------------------|--------------1--1--1--0--|--1--1--1--1--1--3--5-----

Outro  (let ring)
                                   
F           Am                                 
                        
|--1--------0--------|-----------|-----------||
|--1--------1--------|-----------|-----------||
|--2--------2--------|-----------|-----------||
|--3--------2--------|-----------|-----------||
|--3--------0--------|-----------|-----------||
|--1-----------------|-----------|-----------||



[[Guitar 2 Riff]]       play as fast as possible!                                             
  
E||-----8-10---8-10---8-10---8-10---8-10---8-10---8-10---8-10-|
B||--8-------8------8------8------8------8------8------8------|
G||-----------------------------------------------------------|
D||-----------------------------------------------------------|
A||-----------------------------------------------------------|
E||-----------------------------------------------------------|


(Riff 1)
I said, "I wonder how it is I'm standing here
War is raging everywhere under the sky?"
I feel defeated here by everything
Cheated here by everyone on every side

I want to take you to a quiet place
And never ask the meaninglessness to reply
When will we get an hour to celebrate
Find the time to breathe a sigh?

(Chorus A)
I've been working too hard to be living and later
Walking all night 'til I'm shivering and is it
Wasting the time I've been given to maybe
Wait for the day of oblivion?

(Riff 1)
I want to take it to the president
Him and all his cabinet with a broom (START GUITAR 2 RIFF)
I want to sweep the Halls of Arrogance
Sweep the walls of the excrement of these baboons (REPEAT GUITAR 2 RIFF)

But I respect and prize the covenant
I respect the process, I respect the rules (GUITAR 2 RIFF)
When will we find a chord as resonant
As to shake the sheets and make us move?

(Chorus A)
You've been working too hard to be living and later
Walking all night 'til you're shivering and is it
Wasting the time you've been given, to maybe
Wait for the day of oblivion?

(Chorus B)
And she said, "Roll out and make your mark
Pull on your boots and march
Then roll out and meet me where
You'll find me doing my own part"

Roll out your dented car
Maybe it won't roll far
But if you do everything you can
Well babe, that's more than a start

(Bridge)

(Chorus B)
And she said, "Roll out and make your mark
Pull on your boots and march
Then roll out and meet me where
You'll find me good and ready"

Sometimes it's gonna hurt
Sometimes you're gonna deserve that
But if you hold on to what you've got
I know you'll keep it steady, keep it steady

(Outro, two bars only)

(Chorus B) (START GUITAR 2 RIFF UNTIL OUTRO)
So there's no end to work (So there's no end to work) 
So there's no end to murk (So there's no end to murk)
So everything else is dirt
But I am pure and steady

So cut out the morbid verse (So cut out the morbid verse)
I know you'll make it work (I know you'll make it work)
And how you gonna save the world
When the world ain't ready, world ain't ready?

(Outro 16x or so times)
Добавлено: 27.06.2016
Другие материалы по этой песне:
  • Аккорды и текст

Страница создана 26.04.2012
http://primanota.ru/ted-leo-and-the-pharmacists/shake-the-sheets-chords.htm
Привет, Гость.
Предлагаем пройти революционный курс по гитаре.
Подарок от PrimaNota.Ru, забирай!