PrimaNota.ru - самый крупный в мире бесплатный архив песенных текстов, аккордов, табулатур и нот


Ted Leo & The Pharmacists - Gimme The Wire - таба, видео

Регистрация Запомнить меня
Войти через:  Facebook Google Twitter Vk Yandex Mail.ru

Ted Leo & The Pharmacists - Gimme The Wire - таба, видео

Печатать
Просмотров: 66
Уроки эстрадного вокала в Санкт-Петербурге
-------------------------------------------------------------------------------
                             Ted Leo and The Pharmacists - Gimme the Wire
-------------------------------------------------------------------------------
Tabbed by: ExplodedMike

Tuning: Standard

Chorus / Intro
e|--------------------------------------------------------------------------------------------------|
B|--------------------------------------------------------------------------------------------------|
G|--4--4--4--4--4--4--4--4--------------------------7--7--------7-----------------------------------|
D|--4--4--4--4--4--4--4--4--4--4--4--4--4--4--4--4--7--7--7--7--7--7--7--7--7--7--7--7--7--7--7--7--|
A|--2--2--2--2--2--2--2--2--4--4--4--4--4--4--4--4--5--5--7--7--5--7--7--7--7--7--7--7--7--7--7--7--|
E|--------------------------2--2--2--2--2--2--2--2--------5--5-----5--5--5--5--5--5--5--5--5--5--5--|
 |                                                                                                  |
e|--------12-------12-------------12-------12-------------12-------12-------------12-------12-------|
B|--12-12----12-12----12-12-12-12----12-12----12-12-12-12----12-12----12-12-12-12----12-12----12-12-|
G|--------------------------------------------------------------------------------------------------|
D|--------------------------------------------------------------------------------------------------|
A|--------------------------------------------------------------------------------------------------|
E|--------------------------------------------------------------------------------------------------|

e|--------------------------------------------------------------------------------------------------|
B|--------------------------------------------------------------------------------------------------|
G|--4--4--4--4--4--4--4--4--------------------------7--7--7-----------7--7--7-----------------------|
D|--4--4--4--4--4--4--4--4--4--4--4--4--4--4--4--4--7--7--7--7--7--7--7--7--7--7--7--7--7--7--7--7--|
A|--2--2--2--2--2--2--2--2--4--4--4--4--4--4--4--4--5--5--5--7--7--7--5--5--5--7--7--7--7--7--7--7--|
E|--------------------------2--2--2--2--2--2--2--2-----------5--5--5-----------5--5--5--5--5--5--5--|
 |                                                                                                  |
e|--------12-------12-------------12-------12-------12-------12-------12----------12-------12-------|
B|--12-12----12-12----12-12-12-12----12-12----12-12----12-12----12-12----12-12-12----12-12----12-12-|
G|--------------------------------------------------------------------------------------------------|
D|--------------------------------------------------------------------------------------------------|
A|--------------------------------------------------------------------------------------------------|
E|--------------------------------------------------------------------------------------------------|



Verse Part 1 (Really the rhythm part is played by the bass, but you can play along) ;)
e|--0--------0--------0-----0--------0--------0-----2--------2--------2-----2--------2--------2-----|
B|--0--------0--------0-----0--------0--------0-----2--------2--------2-----2--------2--------2-----|
G|--1--------1--------1-----1--------1--------1-----2--------2--------2-----2--------2--------2-----|
D|--2--------2--------2-----2--------2--------2-----4--------4--------4-----4--------4--------4-----|
A|--2--------2--------2-----2--------2--------2-----4--------4--------4-----4--------4--------4-----|
E|--0--------0--------0-----0--------0--------0-----2--------2--------2-----2--------2--------2-----|
-|                                                                                                  |
e|--------------------------------------------4--7-------9---12-9-----------9--12-9-----------9--12-|
B|--------------------------------------5--5-----------------------12-9--12----------12-9--12-------|
G|--------------------------1--1--4--4--------------------------------------------------------------|
D|--------------------2--2--------------------------------------------------------------------------|
A|--------------2--2--------------------------------------------------------------------------------|
E|--0--0--4--4--------------------------------------------------------------------------------------|

e|--0--------0--------0-----0--------0--------0-----2--------2--------2-----2--------2--------2-----|
B|--0--------0--------0-----0--------0--------0-----2--------2--------2-----2--------2--------2-----|
G|--1--------1--------1-----1--------1--------1-----2--------2--------2-----2--------2--------2-----|
D|--2--------2--------2-----2--------2--------2-----4--------4--------4-----4--------4--------4-----|
A|--2--------2--------2-----2--------2--------2-----4--------4--------4-----4--------4--------4-----|
E|--0--------0--------0-----0--------0--------0-----2--------2--------2-----2--------2--------2-----|
-|                                                                                                  |
e|-----12-12-9--9-----------------------------------------------------------------------------------|
B|-----------------12-12-9--9-----------------------------------------------------------------------|
G|-----------------------------11-11-9--9-----------------------------------------------------------|
D|-----------------------------------------11-11-------9--9-----------------------------------------|
A|-----------------------------------------------------------11-11-9--9-----------------------------|
E|-----------------------------------------------------------------------12-12-9--9--7--7-----------|

Verse Part 2 (there's a lot of muted strokes here that I didn't tab)
e|--4--------4--------4-----4--------4--------4-----2--------2--------2-----2--------2--------2-----|
B|--4--------4--------4-----4--------4--------4-----2--------2--------2-----2--------2--------2-----|
G|--4--------4--------4-----4--------4--------4-----2--------2--------2-----2--------2--------2-----|
D|--6--------6--------6-----6--------6--------6-----4--------4--------4-----4--------4--------4-----| x2
A|--6--------6--------6-----6--------6--------6-----4--------4--------4-----4--------4--------4-----|
E|--4--------4--------4-----4--------4--------4-----2--------2--------2-----2--------2--------2-----|



Bridge: I'm going to let you listen to the song for the rhythm here
e|---------------------------|
B|---------------------------|
G|--4--6--8--9--11-13-15-16--|
D|--4--6--8--9--11-13-15-16--|
A|--2--4--6--7--9--11-13-14--|
E|---------------------------|




Добавлено: 07.08.2015
Другие материалы по этой песне:
  • Аккорды и текст

Страница создана 07.08.2015
http://primanota.ru/ted-leo-and-the-pharmacists/gimme-wire-chords.htm
Привет, Гость.
Предлагаем пройти революционный курс по гитаре.
Подарок от PrimaNota.Ru, забирай!