PrimaNota.ru - самый крупный в мире бесплатный архив песенных текстов, аккордов, табулатур и нот


Ted Greene - Youll Never Walk Alone - таба, видео

Регистрация Запомнить меня
Войти через:  Facebook Google Twitter Vk Yandex Mail.ru

Ted Greene - Youll Never Walk Alone - таба, видео

Печатать
Просмотров: 97
Title: You'll Never Walk Alone
Artist: 
Album: 
Author: Rodgers and Hammerstein


Track 1: 

E|-----------|-----------------|-----------------|-------------|-------------|-----------------|
B|-----------|-----------------|-----------------|-------------|-------------|-----------------|
G|-2---------|-------1---------|-------1----2----|-4-----------|-------------|-----------------|
D|------5----|-2----------4----|-2---------------|-1-----4-----|-4------4----|-7-----9----7----|
A|-----------|-2-----2---------|-2-----2---------|-2-----------|-6-----------|-7---------------|
E|-----------|-0-----0---------|-0-----0---------|-2-----------|-7-----------|-9---------------|


E|-----------------|--------|-----------------|-----------------|-----------------|
B|-----------------|--------|-----------------|-----------------|-----------------|
G|-------4---------|--------|-----------------|-2---------------|------------2----|
D|-6----------6----|-4------|-4-----4----6----|-4-----4----4----|-4-----4---------|
A|-7---------------|-6------|-5---------------|-4---------------|-5-----5---------|
E|-7---------------|-7------|-7---------------|-2---------------|-5-----5---------|


E|-------------|-----------------|------------0----|------------0----|-----------------|
B|-2-----------|------------2----|-3-----2---------|-----------------|-----------------|
G|-2-----2-----|-2-----4---------|-2-----1---------|-4-----2---------|-1---------------|
D|-2-----------|-4---------------|-0-----2---------|-4-----2---------|-1---------------|
A|-0-----------|-4---------------|-----------------|-5-----4---------|-3-----3---------|
E|-------------|-2---------------|-2-----0---------|-----------------|------------4----|


E|-------------|-----------------|-------------|-----------------|-2-----0----2----|
B|-------------|-2-----0----2----|-4------4----|-5-----4----5----|-1---------------|
G|-1-----1-----|-------4---------|-4-----------|-4---------------|-----------------|
D|-------------|-2---------------|-4-----------|-2---------------|-2---------------|
A|-2-----------|-0---------------|-0-----------|-----------------|-0---------------|
E|-0-----------|-----------------|-------------|-4---------------|-----------------|


E|-4-----------|-------------|-------------|-------------|-0-----0-----|-0-----0-----|
B|-5-----5-----|-------------|-2-----------|-2-----4-----|-0-----0-----|-------------|
G|-------6-----|-4-----1-----|-1-----------|-1-----2-----|-4-----4-----|-5-----5-----|
D|-2-----6-----|-6-----1-----|-2-----------|-2-----------|-6-----6-----|-2-----2-----|
A|-2-----4-----|-6-----2-----|-0-----0-----|-2-----------|-------------|-------------|
E|-------------|-4-----2-----|-0-----------|-------------|-0-----0-----|-4-----4-----|


E|-0----------0----|-2-----0----2----|-4-----4-----|-4-----4-----|-------------|-------2-----|
B|-2-----4---------|-2-----2----2----|-------------|-------------|-9-----------|-9-----4-----|
G|-----------------|-----------------|-4-----5-----|-6-----7-----|-8-----------|-8-----4-----|
D|-2-----2---------|-----------------|-2-----------|-------6-----|-6-----------|-6-----------|
A|-0-----0---------|-1-----1---------|-2-----7-----|-0-----------|-------------|-0-----------|
E|-----------------|-----------------|-------------|-------6-----|-7-----7-----|-------------|


E|-7-----4-----|-0-----------|-----------------|----------------------|--------|
B|-5-----5-----|-2-----2-----|-------5----5----|------5---------------|--------|
G|-4-----6-----|-2-----2-----|-------6----6----|-6---------6----9-----|-9------|
D|-------6-----|-------5-----|-------5----5----|-5--------------6-----|-6------|
A|-------4-----|-------2-----|-0---------------|----------------------|--------|
E|-4-----------|-2-----------|-----------------|-6--------------7-----|-0------|
Добавлено: 06.08.2015
Другие материалы по этой песне:

Страница создана 19.09.2014
http://primanota.ru/ted-greene/youll-never-walk-alone-chords.htm
Привет, Гость.
Предлагаем пройти революционный курс по гитаре.
Подарок от PrimaNota.Ru, забирай!