PrimaNota.ru - самый крупный в мире бесплатный архив песенных текстов, аккордов, табулатур и нот


Tech N9ne - I Am Everything - таба, видео

Регистрация Запомнить меня
Войти через:  Facebook Google Twitter Vk Yandex Mail.ru

Tech N9ne - I Am Everything - таба, видео

Печатать
Просмотров: 132
"I Am Everything"
Tech N9ne

Drop D Tuning

My first tab. Please rate and comment.

[Verse 1]
e|-------------------------------------------------------------------|
B|-------------------------------------------------------------------|
G|-------------------------------------------------------------------|
D|-10-12-12-12-12---0-0--0-0--0-0--0---10-12-12-12-12---0-0--0-6-5---| x 7
A|-10-12-12-12-12---0-0--0-0--0-0--0---10-12-12-12-12---0-0--0-6-5---|
D|-10-12-12-12-12---0-0--0-0--0-0--0---10-12-12-12-12---0-0--0-6-5---|
                    . .  . .  . .  .                    . .  .

e|-------------------------------------------------------------------|
B|-------------------------------------------------------------------|
G|---------------------------------------------* Don't let note ring-|
D|-10-12-12-12-12---0-0--0-0--0-0--0---10-12-12-12-12---0-0--0-6-5*--| 
A|-10-12-12-12-12---0-0--0-0--0-0--0---10-12-12-12-12---0-0--0-6-5*--|
D|-10-12-12-12-12---0-0--0-0--0-0--0---10-12-12-12-12---0-0--0-6-5*--|
                    . .  . .  . .  .                    . .  .                   

[Pre-Chorus]
e|-------------------------------------------------------------------|
B|-------------------------------------------------------------------|
G|-------------------------------------------------------------------|
D|-6-5-3---0---6-5-3---0---6-5-3---0---6-5-0-------------------------| 
A|-6-5-3---0---6-5-3---0---6-5-3---0---6-5-0-------------------------|
D|-6-5-3---0---6-5-3---0---6-5-3---0---6-5-0-------------------------|

[Chorus]
e|-------------------------------------------------------------------|
B|-------------------------------------------------------------------|
G|-------------------------------------------------------------------|
D|-10-12-12-12-12---0-0--0-0--0-0--0---10-12-12-12-12---0-0--0-6-5---| 
A|-10-12-12-12-12---0-0--0-0--0-0--0---10-12-12-12-12---0-0--0-6-5---|
D|-10-12-12-12-12---0-0--0-0--0-0--0---10-12-12-12-12---0-0--0-6-5---|
                    . .  . .  . .  .                    . .  .

e|-------------------------------------------------------------------|
B|-------------------------------------------------------------------|
G|-------------------------------------------------------------------|
D|-10-12-12-12-12---0-0--0-0--0-0--0---10-12-12-12-12---0-0----------| 
A|-10-12-12-12-12---0-0--0-0--0-0--0---10-12-12-12-12---0-0----------|
D|-10-12-12-12-12---0-0--0-0--0-0--0---10-12-12-12-12---0-0----------|
                    . .  . .  . .  .                    . .  

[Verse 2]
e|-------------------------------------------------------------------|
B|-------------------------------------------------------------------|
G|-------------------------------------------------------------------|
D|-10-12-12-12-12---0-0--0-0--0-0--0---10-12-12-12-12---0-0--0-6-5---| 
A|-10-12-12-12-12---0-0--0-0--0-0--0---10-12-12-12-12---0-0--0-6-5---|
D|-10-12-12-12-12---0-0--0-0--0-0--0---10-12-12-12-12---0-0--0-6-5---|
                    . .  . .  . .  .                    . .  .

e|-------------------------------------------------------------------|
B|-------------------------------------------------------------------|
G|---------------------------------------------* Don't let note ring-|
D|-10-12-12-12-12---0-0--0-0--0-0--0---10-12-12-12-12---0-0--0-6*----| 
A|-10-12-12-12-12---0-0--0-0--0-0--0---10-12-12-12-12---0-0--0-6*----|
D|-10-12-12-12-12---0-0--0-0--0-0--0---10-12-12-12-12---0-0--0-6*----|
                    . .  . .  . .  .                    . .  .

e|-------------------------------------------------------------------|
B|-------------------------------------------------------------------|
G|-------------------------------------------------------------------|
D|-10-12-12-12-12---0-0--0-0--0-0--0---10-12-12-12-12---0-0--0-6-5---| 
A|-10-12-12-12-12---0-0--0-0--0-0--0---10-12-12-12-12---0-0--0-6-5---|
D|-10-12-12-12-12---0-0--0-0--0-0--0---10-12-12-12-12---0-0--0-6-5---|
                    . .  . .  . .  .                    . .  .

e|-------------------------------------------------------------------|
B|-------------------------------------------------------------------|
G|-------------------------------------------------------------------|
D|-10-12-12-12-12---0-0--0-0--0-0--0---10-12-12-12-12---0-0----------| 
A|-10-12-12-12-12---0-0--0-0--0-0--0---10-12-12-12-12---0-0----------|
D|-10-12-12-12-12---0-0--0-0--0-0--0---10-12-12-12-12---0-0----------|
                    . .  . .  . .  .                    . . 

e|-------------------------------------------------------------------|
B|-------------------------------------------------------------------|
G|-------------------------------------------------------------------|
D|-10-12-12-12-12---0-0--0-0--0-0--0---10-12-12-12-12---0-0--0-6-5---| x 4
A|-10-12-12-12-12---0-0--0-0--0-0--0---10-12-12-12-12---0-0--0-6-5---|
D|-10-12-12-12-12---0-0--0-0--0-0--0---10-12-12-12-12---0-0--0-6-5---|
                    . .  . .  . .  .                    . .  .

[Verse 3]
e|-------------------------------------------------------------------|
B|-------------------------------------------------------------------|
G|-------------------------------------------------------------------|
D|-10-12-12-12-12---0-0--0-0--0-0--0---10-12-12-12-12---0-0--0-6-5---| x 8
A|-10-12-12-12-12---0-0--0-0--0-0--0---10-12-12-12-12---0-0--0-6-5---|
D|-10-12-12-12-12---0-0--0-0--0-0--0---10-12-12-12-12---0-0--0-6-5---|
                    . .  . .  . .  .                    . .  .

Order of Play
[Verse 1]
[Pre-Chorus]
[Chorus]
[Verse 2]
[Pre-Chorus]
[Chorus]
[Verse 3]
[Pre-Chorus]
[Chorus]
Добавлено: 01.03.2012
Другие материалы по этой песне:
  • Аккорды и текст

Страница создана 01.03.2012
http://primanota.ru/tech-n9ne/i-am-everything-chords.htm
Привет, Гость.
Предлагаем пройти революционный курс по гитаре.
Подарок от PrimaNota.Ru, забирай!