PrimaNota.ru - самый крупный в мире бесплатный архив песенных текстов, аккордов, табулатур и нот


Team William - 1995 - таба, видео

Регистрация Запомнить меня
Войти через:  Facebook Google Twitter Vk Yandex Mail.ru

Team William - 1995 - таба, видео

Печатать
Просмотров: 105
Уроки эстрадного вокала в Санкт-Петербурге
Team William-1995 (DRAMA)

Intro (4x)
E|-----4-----4---4-6p4---4-----4---------4-----4---4-8-----8-----8-|
B|---4-----4-----------------4---------4-----4-----------4-----4---|
G|-5-----5-----5-------5---5-------5-6-----6-----6-----6-----6-----|
D|-----------------------------------------------------------------|
A|-----------------------------------------------------------------|
E|-----------------------------------------------------------------|

Verse (2x)
E|-4----------4----|
B|-4----------4----|
G|-5----------6----|
D|-----------------|
A|-----------------|
E|-----------------|

Chorus (2x)
E|-6-------8--------4-------4-------4----|
B|-8-------9--------6-------4-------4----|
G|-8-------10-------6-------5-------6----|
D|---------------------------------------|
A|---------------------------------------|
E|---------------------------------------|

Intro (2x)

Verse (4x)

Chorus (2x)

Presolo (10x)
E|-----4-----4---------4-----4--------|
B|---4-----4-----4---4-----4-----4----|
G|-5-----5-----5---6-----6-----6------|
D|------------------------------------|
A|------------------------------------|
E|------------------------------------|

SOLO
G#-C#-A#-C#
E|-------------------------------------------------------|
B|-14-13-14-13-14-16----------14-13-14-13-14-16----------|
G|-------------------13-15----------------------15-13----| (2x)
D|-------------------------------------------------------|
A|-------------------------------------------------------|
E|-------------------------------------------------------|


E|-------------------------------------------------------------------|
B|----------16-------------16----13-------16----------------13-------|
G|-13-13-13----15-13----13----15-------13----15-13----13-15----13----| (2x)
D|-------------------------------------------------------------------|
A|-------------------------------------------------------------------|
E|-------------------------------------------------------------------|

E|--------------------------------------------------------------------------|
B|----13----13-13----14-14----14-14----16-16----16-16-----18-18-18/21-21-21-|
G|-13----13-------13-------13-------13-------13-------13--17-17-17/20-20-20-| (4x)
D|--------------------------------------------------------------------------|
A|--------------------------------------------------------------------------|
E|--------------------------------------------------------------------------|

~Tabbed by Tim Van de Voorde~
Добавлено: 17.06.2016
Другие материалы по этой песне:
  • Аккорды и текст

Страница создана 17.06.2016
http://primanota.ru/team-william/1995-chords.htm
Привет, Гость.
Предлагаем пройти революционный курс по гитаре.
Подарок от PrimaNota.Ru, забирай!