PrimaNota.ru - самый крупный в мире бесплатный архив песенных текстов, аккордов, табулатур и нот


Team Me - Favourite Ghost - таба, видео

Регистрация Запомнить меня
Войти через:  Facebook Google Twitter Vk Yandex Mail.ru

Team Me - Favourite Ghost - таба, видео

Печатать
Просмотров: 97
Hi everyone. I'm tabbing for the first time, so sorry if it's not 100% correct... Any 
suggestions are welcome.
This is a great song from Team Me, I really like it. I tabbed it from the record on 
their album To The Treetops!

So have fun. :)

Tunning: standard

I'm tabbing just the part, that Uno plays on his electric guitar.


intro

E|--3----3--5--7----7----10----9----5----7----7----7----7--5--3----3----3---|
H|--------------------------------------------------------------------------|
G|--------------------------------------------------------------------------|
D|--------------------------------------------------------------------------|
a|--------------------------------------------------------------------------|
e|--------------------------------------------------------------------------|


E|---10--9--7----7----7----7----0----2----2----2----0-----2--0-----2--0-----2--|
H|-----------------------------------------------------4--------4--------4-----|
G|-----------------------------------------------------------------------------|
D|-----------------------------------------------------------------------------|
a|-----------------------------------------------------------------------------|
e|-----------------------------------------------------------------------------|


E|--0-----2--0-----2---|
H|-----4--------4------|
G|---------------------|
D|---------------------| x2
a|---------------------|
e|---------------------|


verse

repeat intro


breakout 1

E|--7----7----9----10----4----4----3----5--|            E|--7----7----9----10----4---4----3--|
H|-----------------------------------------|            H|-----------------------------------|
G|-----------------------------------------|x3  then    G|-----------------------------------|
D|-----------------------------------------|            D|-----------------------------------|
a|-----------------------------------------|            a|-----------------------------------|
e|-----------------------------------------|            e|-----------------------------------|

repeat verse


breakout 2

Technically, it's same as breakout 1.

E|--7----7----9----10----4----4----3--|
H|------------------------------------|
G|------------------------------------| repeat it many times
D|------------------------------------|
a|------------------------------------|
e|------------------------------------|

Then goes solo by Uno

E|--10------10------12------14-------7-------7-------7---------|
H|-------12------12------12------12------12------12------12----|
G|-------------------------------------------------------------|
D|-------------------------------------------------------------|
a|-------------------------------------------------------------|
e|-------------------------------------------------------------|

Outro

still repeat breakout 2

E|--7----7----9----10----4----4----3--|                E|------7------------|T
H|------------------------------------|                B|-------------------|H
G|------------------------------------|     end on     G|-------------------|E
D|------------------------------------|                D|-------------------|E
a|------------------------------------|                a|-------------------|N
e|------------------------------------|                e|-------------------|D


    So this is it... I hope you like it guys. :)
Добавлено: 14.07.2013
Другие материалы по этой песне:

Страница создана 14.07.2013
http://primanota.ru/team-me/favourite-ghost-chords.htm
Привет, Гость.
Предлагаем пройти революционный курс по гитаре.
Подарок от PrimaNota.Ru, забирай!