PrimaNota.ru - самый крупный в мире бесплатный архив песенных текстов, аккордов, табулатур и нот


Team Elite - Team Elite Theme - таба, видео

Регистрация Запомнить меня
Войти через:  Facebook Google Twitter Vk Yandex Mail.ru

Team Elite - Team Elite Theme - таба, видео

Печатать
Просмотров: 84
Tuning:Drop D

E|--------------------------------------------------------------------------|
B|--------------------------------------------------------------------------|
G|--------------------------------------------------------------------------|
D|--------------------------------------------------------------------------|
A|--0-3-5-6-5-3-3-0-3-0-0--0-3-5-6-5-3-3-0-3-0-0--0-3-5-6-5-3-3-0-3-0-------|
D|--0-3-5-6-5-3-3-0-3-0-0--0-3-5-6-5-3-3-0-3-0-0--0-3-5-6-5-3-3-0-3-0-------|

(Tremolo Picking)
E|--------------------------------------------------------------------------|
B|--------------------------------------------------------------------------|
G|--------------------------------------------------------------------------|
D|--------------------------------------------------------------------------|
A|-0-0-3-0-0-3-0-0-3-0-3-0-0-3-0-0-3-0-3------------------------------------|
D|-0-0-3-0-0-3-0-0-3-0-3-0-0-3-0-0-3-0-3------------------------------------|

E|--------------------------------------------------------------------------|
B|--------------------------------------------------------------------------|
G|--------------------------------------------------------------------------|
D|--------------------------------------------------------------------------|
A|-0-0-5-0-0-5-0-0-5-0-5-0-0-5-0-0-5-0-5------------------------------------|
D|-0-0-5-0-0-5-0-0-5-0-5-0-0-5-0-0-5-0-5------------------------------------|

E|--------------------------------------------------------------------------|
B|--------------------------------------------------------------------------|
G|--------------------------------------------------------------------------|
D|--------------------------------------------------------------------------|
A|-0-6-0-0-6-0-0-6-0-6-0-0-6------------------------------------------------|
D|-0-6-0-0-6-0-0-6-0-6-0-0-6------------------------------------------------|

e|----------------------------------------------------------------------------|
B|----------------------------------------------------------------------------|
G|----------------------------------------------------------------------------|
D|----------------------------------------------------------------------------|
A|-0-5-0-0-5-0-0-5-0-5-0-0-5--------------------------------------------------|
D|-0-5-0-0-5-0-0-5-0-5-0-0-5--------------------------------------------------|

E|--------------------------------------------------------------------------|
B|--------------------------------------------------------------------------|
G|--------------------------------------------------------------------------|
D|--------------------------------------------------------------------------|
A|-0-3-0-0-3-0-0-3-0-3-0-0-3------------------------------------------------|
D|-0-3-0-0-3-0-0-3-0-3-0-0-3------------------------------------------------|

E|--------------------------------------------------------------------------|
B|--------------------------------------------------------------------------|
G|--------------------------------------------------------------------------|
D|--------------------------------------------------------------------------|
A|-0-0-3-0-0-3-0-0-3-0-3-0-0-3-0-0-3-0-3------------------------------------|
D|-0-0-3-0-0-3-0-0-3-0-3-0-0-3-0-0-3-0-3------------------------------------|

E|--------------------------------------------------------------------------|
B|--------------------------------------------------------------------------|
G|--------------------------------------------------------------------------|
D|--------------------------------------------------------------------------|
A|-0-0-5-0-0-5-0-0-5-0-5-0-0-5-0-0-5-0-5------------------------------------|
D|-0-0-5-0-0-5-0-0-5-0-5-0-0-5-0-0-5-0-5------------------------------------|

E|--------------------------------------------------------------------------|
B|--------------------------------------------------------------------------|
G|--------------------------------------------------------------------------|
D|--------------------------------------------------------------------------|
A|-0-6-0-0-6-0-0-6-0-6-0-0-6------------------------------------------------|
D|-0-6-0-0-6-0-0-6-0-6-0-0-6------------------------------------------------|

e|--------------------------------------------------------------------------|
B|--------------------------------------------------------------------------|
G|--------------------------------------------------------------------------|
D|--------------------------------------------------------------------------|
A|-0-5-0-0-5-0-0-5-0-5-0-0-5------------------------------------------------|
D|-0-5-0-0-5-0-0-5-0-5-0-0-5------------------------------------------------|

E|--------------------------------------------------------------------------|
B|--------------------------------------------------------------------------|
G|--------------------------------------------------------------------------|
D|--------------------------------------------------------------------------|
A|-0-3-0-0-3-0-0-3-0-3-0-0-3------------------------------------------------|
D|-0-3-0-0-3-0-0-3-0-3-0-0-3------------------------------------------------|

E|--------------------------------------------------------------------------|
B|--------------------------------------------------------------------------|
G|--------------------------------------------------------------------------|
D|--------------------------------------------------------------------------|
A|-0-3-5-6-5-3-3-0-3-0-0--0-3-5-6-5-3-3-0-3-0-0--0-3-5-6-5-3-3-0-3-0--------|
D|-0-3-5-6-5-3-3-0-3-0-0--0-3-5-6-5-3-3-0-3-0-0--0-3-5-6-5-3-3-0-3-0--------|

(Tremolo Picking)
E|--------------------------------------------------------------------------|
B|--------------------------------------------------------------------------|
G|--------------------------------------------------------------------------|
D|--------------------------------------------------------------------------|
A|-0-0-3-0-0-3-0-0-3-0-3-0-0-3-0-0-3-0-3------------------------------------|
D|-0-0-3-0-0-3-0-0-3-0-3-0-0-3-0-0-3-0-3------------------------------------|

E|--------------------------------------------------------------------------|
B|--------------------------------------------------------------------------|
G|--------------------------------------------------------------------------|
D|--------------------------------------------------------------------------|
A|-0-0-5-0-0-5-0-0-5-0-5-0-0-5-0-0-5-0-5------------------------------------|
D|-0-0-5-0-0-5-0-0-5-0-5-0-0-5-0-0-5-0-5------------------------------------|

E|--------------------------------------------------------------------------|
B|--------------------------------------------------------------------------|
G|--------------------------------------------------------------------------|
D|--------------------------------------------------------------------------|
A|-0-6-0-0-6-0-0-6-0-6-0-0-6------------------------------------------------|
D|-0-6-0-0-6-0-0-6-0-6-0-0-6------------------------------------------------|

e|--------------------------------------------------------------------------|
B|--------------------------------------------------------------------------|
G|--------------------------------------------------------------------------|
D|--------------------------------------------------------------------------|
A|-0-5-0-0-5-0-0-5-0-5-0-0-5------------------------------------------------|
D|-0-5-0-0-5-0-0-5-0-5-0-0-5------------------------------------------------|

E|--------------------------------------------------------------------------|
B|--------------------------------------------------------------------------|
G|--------------------------------------------------------------------------|
D|--------------------------------------------------------------------------|
A|-0-3-0-0-3-0-0-3-0-3-0-0-3------------------------------------------------|
D|-0-3-0-0-3-0-0-3-0-3-0-0-3------------------------------------------------|

E|--------------------------------------------------------------------------|
B|--------------------------------------------------------------------------|
G|--------------------------------------------------------------------------|
D|--------------------------------------------------------------------------|
A|-0-0-3-0-0-3-0-0-3-0-3-0-0-3-0-0-3-0-3------------------------------------|
D|-0-0-3-0-0-3-0-0-3-0-3-0-0-3-0-0-3-0-3------------------------------------|

E|--------------------------------------------------------------------------|
B|--------------------------------------------------------------------------|
G|--------------------------------------------------------------------------|
D|--------------------------------------------------------------------------|
A|-0-0-5-0-0-5-0-0-5-0-5-0-0-5-0-0-5-0-5------------------------------------|
D|-0-0-5-0-0-5-0-0-5-0-5-0-0-5-0-0-5-0-5------------------------------------|

E|--------------------------------------------------------------------------|
B|--------------------------------------------------------------------------|
G|--------------------------------------------------------------------------|
D|--------------------------------------------------------------------------|
A|-0-6-0-0-6-0-0-6-0-6-0-0-6------------------------------------------------|
D|-0-6-0-0-6-0-0-6-0-6-0-0-6------------------------------------------------|

e|--------------------------------------------------------------------------|
B|--------------------------------------------------------------------------|
G|--------------------------------------------------------------------------|
D|--------------------------------------------------------------------------|
A|-0-5-0-0-5-0-0-5-0-5-0-0-5------------------------------------------------|
D|-0-5-0-0-5-0-0-5-0-5-0-0-5------------------------------------------------|

E|--------------------------------------------------------------------------|
B|--------------------------------------------------------------------------|
G|--------------------------------------------------------------------------|
D|--------------------------------------------------------------------------|
A|-0-3-0-0-3-0-0-3-0-3-0-0-3-0----------------------------------------------|
D|-0-3-0-0-3-0-0-3-0-3-0-0-3-0----------------------------------------------|
Добавлено: 28.03.2012
Другие материалы по этой песне:
  • Аккорды и текст

Страница создана 28.03.2012
http://primanota.ru/team-elite/team-elite-theme-chords.htm
Привет, Гость.
Предлагаем пройти революционный курс по гитаре.
Подарок от PrimaNota.Ru, забирай!