PrimaNota.ru - самый крупный в мире бесплатный архив песенных текстов, аккордов, табулатур и нот


Tea Party - Writing On The Wall - бас-таба, видео

Регистрация Запомнить меня
Войти через:  Facebook Google Twitter Vk Yandex Mail.ru

Tea Party - Writing On The Wall - бас-таба, видео

Печатать
Просмотров: 121
Уроки эстрадного вокала в Санкт-Петербурге
Paskal Fournier, Lachute .QC.CA
(Pasko)

Legende
/ : slide
p : pull off

Tunning : DADG (standard drop D)

Intro Guitar 2 fois
Intro Bass

|-----------------------------------------------------|
|-----------------------------------------------------|
|---------3p5---------------3p5-5---------------------|
|---0--3-5-----5-3-0-0-3-5--------5-3-----------------|

Verse 

|-----------------------------------------------------|
|-----------------------------------------------------|
|-------3-------3-3-----------------------------------|
|-0-3-5---0-3-5-----5-3-------------------------------|

Chorus 

|-----------------------------------------------------|
|-----------------------------------------------------|
|-----------------------------------------------------|
|--8888888888888-10-10-10--0-0-0-0-0-0-0-0------------|

|-----------------------------------------------------|
|-----------------------------------------------------|
|-----------------------------------------------------|
|--8888888888888-0-5-0-5-0-5-0-5-0-5-5----------------|

Bridge 1

|-------------------------------------------------------------------|
|----------5------------------5------------------5------------------|
|----2-3-5---3-2-3-2----2-3-5---3-2-3-2----2-3-5---3-2-3-2/5--------|
|--5-----------------5------------------5---------------------------|

Bridge 2

|--------------------------------------------------------------------|
|--------3p5-------------3p5-5-----------3p5-------------3p5-5-------|
|--0-3-5-----3-5-0-0-3-5-------3-5-0-3-5-----3-5-0-0-3-5-------3-5---|
|--------------------------------------------------------------------|


that's the basic line of baseline feel free to put addition
Добавлено: 10.05.2012
Другие материалы по этой песне:
  • Аккорды и текст

Страница создана 10.05.2012
http://primanota.ru/tea-party/writing-on-the-wall-chords.htm
Привет, Гость.
Предлагаем пройти революционный курс по гитаре.
Подарок от PrimaNota.Ru, забирай!